  0
SECTION
  2
HEADER
  9
$ACADVER
  1
AC1009
  9
$DWGCODEPAGE
  3
ansi_1252
  9
$INSBASE
 10
0.0
 20
0.0
 30
0.0
  9
$EXTMIN
 10
398.470402522691
 20
234.288872062313
 30
0.0
  9
$EXTMAX
 10
950.095856878305
 20
622.315242415672
 30
0.0
  9
$LIMMIN
 10
0.0
 20
0.0
  9
$LIMMAX
 10
420.0
 20
297.0
  9
$ORTHOMODE
 70
           0
  9
$REGENMODE
 70
           1
  9
$FILLMODE
 70
           1
  9
$QTEXTMODE
 70
           0
  9
$MIRRTEXT
 70
           0
  9
$DRAGMODE
 70
           2
  9
$LTSCALE
 40
1.0
  9
$OSMODE
 70
           0
  9
$ATTMODE
 70
           1
  9
$TEXTSIZE
 40
2.5
  9
$TRACEWID
 40
1.0
  9
$TEXTSTYLE
  7
STANDARD
  9
$CLAYER
  8
0
  9
$CELTYPE
  6
ByLayer
  9
$CECOLOR
 62
         256
  9
$DIMSCALE
 40
1.0
  9
$DIMASZ
 40
2.5
  9
$DIMEXO
 40
0.625
  9
$DIMDLI
 40
3.75
  9
$DIMRND
 40
0.0
  9
$DIMDLE
 40
0.0
  9
$DIMEXE
 40
1.25
  9
$DIMTP
 40
0.0
  9
$DIMTM
 40
0.0
  9
$DIMTXT
 40
2.5
  9
$DIMCEN
 40
2.5
  9
$DIMTSZ
 40
0.0
  9
$DIMTOL
 70
           0
  9
$DIMLIM
 70
           0
  9
$DIMTIH
 70
           0
  9
$DIMTOH
 70
           0
  9
$DIMSE1
 70
           0
  9
$DIMSE2
 70
           0
  9
$DIMTAD
 70
           1
  9
$DIMZIN
 70
           8
  9
$DIMBLK
  1

  9
$DIMASO
 70
           1
  9
$DIMSHO
 70
           1
  9
$DIMPOST
  1

  9
$DIMAPOST
  1

  9
$DIMALT
 70
           0
  9
$DIMALTD
 70
           3
  9
$DIMALTF
 40
0.03937007874
  9
$DIMLFAC
 40
1.0
  9
$DIMTOFL
 70
           1
  9
$DIMTVP
 40
0.0
  9
$DIMTIX
 70
           0
  9
$DIMSOXD
 70
           0
  9
$DIMSAH
 70
           0
  9
$DIMBLK1
  1

  9
$DIMBLK2
  1

  9
$DIMSTYLE
  2
ISO-25
  9
$DIMCLRD
 70
           0
  9
$DIMCLRE
 70
           0
  9
$DIMCLRT
 70
           0
  9
$DIMTFAC
 40
1.0
  9
$DIMGAP
 40
0.625
  9
$LUNITS
 70
           2
  9
$LUPREC
 70
           4
  9
$AXISMODE
 70
           0
  9
$AXISUNIT
 10
0.0
 20
0.0
  9
$SKETCHINC
 40
1.0
  9
$FILLETRAD
 40
0.0
  9
$AUNITS
 70
           0
  9
$AUPREC
 70
           0
  9
$MENU
  1
.
  9
$ELEVATION
 40
0.0
  9
$PELEVATION
 40
0.0
  9
$THICKNESS
 40
0.0
  9
$LIMCHECK
 70
           0
  9
$BLIPMODE
 70
           0
  9
$CHAMFERA
 40
0.0
  9
$CHAMFERB
 40
0.0
  9
$SKPOLY
 70
           0
  9
$TDCREATE
 40
2453710.955544514
  9
$TDUPDATE
 40
2454300.619701042
  9
$TDINDWG
 40
0.0719553009
  9
$TDUSRTIMER
 40
0.0719551273
  9
$USRTIMER
 70
           1
  9
$ANGBASE
 50
0.0
  9
$ANGDIR
 70
           0
  9
$PDMODE
 70
           0
  9
$PDSIZE
 40
0.0
  9
$PLINEWID
 40
0.0
  9
$COORDS
 70
           0
  9
$SPLFRAME
 70
           0
  9
$SPLINETYPE
 70
           6
  9
$SPLINESEGS
 70
           8
  9
$ATTDIA
 70
           0
  9
$ATTREQ
 70
           0
  9
$HANDLING
 70
           1
  9
$HANDSEED
  5
E37
  9
$SURFTAB1
 70
           6
  9
$SURFTAB2
 70
           6
  9
$SURFTYPE
 70
           6
  9
$SURFU
 70
           6
  9
$SURFV
 70
           6
  9
$UCSNAME
  2

  9
$UCSORG
 10
0.0
 20
0.0
 30
0.0
  9
$UCSXDIR
 10
1.0
 20
0.0
 30
0.0
  9
$UCSYDIR
 10
0.0
 20
1.0
 30
0.0
  9
$PUCSNAME
  2

  9
$PUCSORG
 10
0.0
 20
0.0
 30
0.0
  9
$PUCSXDIR
 10
1.0
 20
0.0
 30
0.0
  9
$PUCSYDIR
 10
0.0
 20
1.0
 30
0.0
  9
$USERI1
 70
           0
  9
$USERI2
 70
           0
  9
$USERI3
 70
           0
  9
$USERI4
 70
           0
  9
$USERI5
 70
           0
  9
$USERR1
 40
0.0
  9
$USERR2
 40
0.0
  9
$USERR3
 40
0.0
  9
$USERR4
 40
0.0
  9
$USERR5
 40
0.0
  9
$WORLDVIEW
 70
           1
  9
$SHADEDGE
 70
           3
  9
$SHADEDIF
 70
          70
  9
$TILEMODE
 70
           1
  9
$MAXACTVP
 70
          64
  9
$PINSBASE
 10
0.0
 20
0.0
 30
0.0
  9
$PLIMCHECK
 70
           0
  9
$PEXTMIN
 10
0.0
 20
0.0
 30
0.0
  9
$PEXTMAX
 10
0.0
 20
0.0
 30
0.0
  9
$PLIMMIN
 10
0.0
 20
0.0
  9
$PLIMMAX
 10
12.0
 20
9.0
  9
$UNITMODE
 70
           0
  9
$VISRETAIN
 70
           1
  9
$PLINEGEN
 70
           0
  9
$PSLTSCALE
 70
           1
  9
$TREEDEPTH
 70
        3020
  0
ENDSEC
  0
SECTION
  2
TABLES
  0
TABLE
  2
VPORT
 70
           1
  0
VPORT
  2
*ACTIVE
 70
          64
 10
0.0
 20
0.0
 11
1.0
 21
1.0
 12
756.242696545285
 22
399.667149092729
 13
0.0
 23
0.0
 14
10.0
 24
10.0
 15
10.0
 25
10.0
 16
0.0
 26
0.0
 36
1.0
 17
0.0
 27
0.0
 37
0.0
 40
599.368095233267
 41
1.776141384389
 42
50.0
 43
0.0
 44
0.0
 50
0.0
 51
0.0
 71
           0
 72
        1000
 73
           1
 74
           3
 75
           0
 76
           0
 77
           0
 78
           0
  0
ENDTAB
  0
TABLE
  2
LTYPE
 70
           1
  0
LTYPE
  2
CONTINUOUS
 70
          64
  3
Solid line
 72
          65
 73
           0
 40
0.0
  0
ENDTAB
  0
TABLE
  2
LAYER
 70
           3
  0
LAYER
  2
0
 70
          64
 62
           7
  6
CONTINUOUS
  0
LAYER
  2
CUT
 70
          64
 62
          10
  6
CONTINUOUS
  0
LAYER
  2
SCORE
 70
          64
 62
           5
  6
CONTINUOUS
  0
ENDTAB
  0
TABLE
  2
STYLE
 70
           1
  0
STYLE
  2
STANDARD
 70
          64
 40
0.0
 41
1.0
 50
0.0
 71
           0
 42
2.5
  3
TXT
  4

  0
ENDTAB
  0
TABLE
  2
VIEW
 70
           0
  0
ENDTAB
  0
TABLE
  2
UCS
 70
           0
  0
ENDTAB
  0
TABLE
  2
APPID
 70
           4
  0
APPID
  2
ACAD
 70
          64
  0
APPID
  2
ACAD_PSEXT
 70
          64
  0
APPID
  2
ACAD_EXEMPT_FROM_CAD_STANDARDS
 70
          64
  0
APPID
  2
ACAECLAYERSTANDARD
 70
          64
  0
ENDTAB
  0
TABLE
  2
DIMSTYLE
 70
           1
  0
DIMSTYLE
  2
ISO-25
 70
          64
  3

  4

  5

  6

  7

 40
1.0
 41
2.5
 42
0.625
 43
3.75
 44
1.25
 45
0.0
 46
0.0
 47
0.0
 48
0.0
 71
           0
 72
           0
 73
           0
 74
           0
 75
           0
 76
           0
 77
           1
 78
           8
140
2.5
141
2.5
142
0.0
143
0.03937007874
144
1.0
145
0.0
146
1.0
147
0.625
170
           0
171
           3
172
           1
173
           0
174
           0
175
           0
176
           0
177
           0
178
           0
  0
ENDTAB
  0
ENDSEC
  0
SECTION
  2
BLOCKS
  0
BLOCK
  8
0
  5
A0C
  2
A$C35AE2089
 70
          64
 10
0.0
 20
0.0
 30
0.0
  3
A$C35AE2089
  0
LINE
  8
CUT
  5
7F6
 10
7.40784873937
 20
325.197943448824
 30
0.0
 11
2.886909439764
 21
320.677004149218
 31
0.0
  0
ARC
  8
CUT
  5
7F7
 10
4.579421614624
 20
328.026370573571
 30
0.0
 40
4.0
 50
315.0
 51
50.415245445967
  0
LINE
  8
CUT
  5
7F8
 10
2.886909439764
 20
244.330138197222
 30
0.0
 11
7.21383683307
 21
240.003210803917
 31
0.0
  0
LINE
  8
CUT
  5
7F9
 10
7.21383683307
 20
234.346356554424
 30
0.0
 11
2.412092932676
 21
229.54461265403
 31
0.0
  0
ARC
  8
CUT
  5
7FA
 10
4.385409708323
 20
237.174783679171
 30
0.0
 40
4.0
 50
315.0
 51
45.0
  0
LINE
  8
CUT
  5
7FB
 10
2.412092932676
 20
153.197746702034
 30
0.0
 11
6.739020325981
 21
148.870819308729
 31
0.0
  0
LINE
  8
SCORE
  5
7FC
 10
8.579382059439
 20
328.044159331764
 30
0.0
 11
67.465491366787
 21
328.306039611302
 31
0.0
  0
LINE
  8
SCORE
  5
7FD
 10
8.385409708323
 20
237.174783679171
 30
0.0
 11
67.446345420751
 21
237.17478367917
 31
0.0
  0
LINE
  8
CUT
  5
7FE
 10
6.739020325981
 20
143.213965059237
 30
0.0
 11
1.937276425587
 21
138.412221158843
 31
0.0
  0
ARC
  8
CUT
  5
7FF
 10
3.910593201235
 20
146.042392183983
 30
0.0
 40
4.0
 50
315.0
 51
45.0
  0
LINE
  8
CUT
  5
800
 10
1.937276425587
 20
62.065355206846
 30
0.0
 11
6.264203818892
 21
57.738427846732
 31
0.0
  0
LINE
  8
CUT
  5
801
 10
2.886909439764
 20
334.615982630987
 30
0.0
 11
7.128297400765
 21
331.109101866892
 31
0.0
  0
LINE
  8
CUT
  5
802
 10
6.264203818892
 20
52.08157359724
 30
0.0
 11
1.881747926371
 21
47.699117671527
 31
0.0
  0
ARC
  8
CUT
  5
803
 10
3.435776694146
 20
54.910000721986
 30
0.0
 40
4.0
 50
315.0
 51
45.0
  0
LINE
  8
SCORE
  5
804
 10
7.910580001784
 20
146.032116219975
 30
0.0
 11
67.465541699885
 21
145.879119554387
 31
0.0
  0
LINE
  8
SCORE
  5
805
 10
7.435776694146
 20
54.910000719913
 30
0.0
 11
67.465541699885
 21
54.910000688795
 31
0.0
  0
LINE
  8
CUT
  5
806
 10
3.157622192182
 20
0.000000721986
 30
0.0
 11
21.437276425587
 21
0.000000721986
 31
0.0
  0
LINE
  8
CUT
  5
807
 10
24.437276425587
 20
3.000000721986
 30
0.0
 11
24.437276425587
 21
4.500000721986
 31
0.0
  0
ARC
  8
CUT
  5
808
 10
21.437276425587
 20
3.000000721986
 30
0.0
 40
3.0
 50
270.0
 51
360.0
  0
LINE
  8
CUT
  5
809
 10
21.437276425587
 20
7.500000721986
 30
0.0
 11
19.937276425587
 21
7.500000721986
 31
0.0
  0
ARC
  8
CUT
  5
80A
 10
21.437276425587
 20
4.500000721986
 30
0.0
 40
3.0
 50
0.0
 51
90.0
  0
LINE
  8
CUT
  5
80B
 10
16.937276425587
 20
10.500000721986
 30
0.0
 11
16.937276425587
 21
12.000000721986
 31
0.0
  0
ARC
  8
CUT
  5
80C
 10
19.937276425587
 20
12.000000721986
 30
0.0
 40
3.0
 50
90.0
 51
180.0
  0
ARC
  8
CUT
  5
80D
 10
19.937276425587
 20
10.500000721986
 30
0.0
 40
3.0
 50
180.0
 51
270.0
  0
LINE
  8
CUT
  5
80E
 10
19.937276425587
 20
15.000000721986
 30
0.0
 11
43.937276425587
 21
15.000000721986
 31
0.0
  0
ARC
  8
CUT
  5
80F
 10
43.937276425587
 20
12.000000721986
 30
0.0
 40
3.0
 50
0.0
 51
90.0
  0
LINE
  8
CUT
  5
810
 10
46.937276425587
 20
12.000000721986
 30
0.0
 11
46.937276425587
 21
10.500000721986
 31
0.0
  0
LINE
  8
CUT
  5
811
 10
43.937276425587
 20
7.500000721986
 30
0.0
 11
42.437276425587
 21
7.500000721986
 31
0.0
  0
ARC
  8
CUT
  5
812
 10
43.937276425587
 20
10.500000721986
 30
0.0
 40
3.0
 50
270.0
 51
360.0
  0
LINE
  8
CUT
  5
813
 10
39.437276425587
 20
4.500000721986
 30
0.0
 11
39.437276425587
 21
3.000000721986
 31
0.0
  0
ARC
  8
CUT
  5
814
 10
42.437276425587
 20
4.500000721986
 30
0.0
 40
3.0
 50
90.0
 51
180.0
  0
LINE
  8
CUT
  5
815
 10
42.437276425587
 20
0.000000721986
 30
0.0
 11
88.937276425587
 21
0.000000721986
 31
0.0
  0
ARC
  8
CUT
  5
816
 10
88.937276425587
 20
3.000000721986
 30
0.0
 40
3.0
 50
270.0
 51
360.0
  0
ARC
  8
CUT
  5
817
 10
42.437276425587
 20
3.000000721986
 30
0.0
 40
3.0
 50
180.0
 51
270.0
  0
LINE
  8
CUT
  5
818
 10
91.937276425587
 20
3.000000721986
 30
0.0
 11
91.937276425587
 21
4.500000721986
 31
0.0
  0
LINE
  8
CUT
  5
819
 10
88.937276425587
 20
7.500000721986
 30
0.0
 11
87.437276425587
 21
7.500000721986
 31
0.0
  0
ARC
  8
CUT
  5
81A
 10
88.937276425587
 20
4.500000721986
 30
0.0
 40
3.0
 50
0.0
 51
90.0
  0
ARC
  8
CUT
  5
81B
 10
87.437276425587
 20
10.500000721986
 30
0.0
 40
3.0
 50
180.0
 51
270.0
  0
LINE
  8
CUT
  5
81C
 10
84.437276425587
 20
10.500000721986
 30
0.0
 11
84.437276425587
 21
12.000000721986
 31
0.0
  0
ARC
  8
CUT
  5
81D
 10
87.437276425587
 20
12.000000721986
 30
0.0
 40
3.0
 50
90.0
 51
180.0
  0
LINE
  8
CUT
  5
81E
 10
87.437276425587
 20
15.000000721986
 30
0.0
 11
111.437276425587
 21
15.000000721986
 31
0.0
  0
ARC
  8
CUT
  5
81F
 10
111.437276425587
 20
12.000000721986
 30
0.0
 40
3.0
 50
0.0
 51
90.0
  0
LINE
  8
CUT
  5
820
 10
114.437276425587
 20
12.000000721986
 30
0.0
 11
114.437276425587
 21
10.500000721986
 31
0.0
  0
LINE
  8
CUT
  5
821
 10
111.437276425587
 20
7.500000721986
 30
0.0
 11
109.937276425587
 21
7.500000721986
 31
0.0
  0
ARC
  8
CUT
  5
822
 10
111.437276425587
 20
10.500000721986
 30
0.0
 40
3.0
 50
270.0
 51
360.0
  0
LINE
  8
CUT
  5
823
 10
106.937276425587
 20
4.500000721986
 30
0.0
 11
106.937276425587
 21
3.000000721986
 31
0.0
  0
ARC
  8
CUT
  5
824
 10
109.937276425587
 20
3.000000721986
 30
0.0
 40
3.0
 50
180.0
 51
270.0
  0
ARC
  8
CUT
  5
825
 10
109.937276425587
 20
4.500000721986
 30
0.0
 40
3.0
 50
90.0
 51
180.0
  0
LINE
  8
CUT
  5
826
 10
109.937276425587
 20
0.000000721986
 30
0.0
 11
156.437276425587
 21
0.000000721986
 31
0.0
  0
ARC
  8
CUT
  5
827
 10
156.437276425587
 20
3.000000721986
 30
0.0
 40
3.0
 50
270.0
 51
360.0
  0
LINE
  8
CUT
  5
828
 10
159.437276425587
 20
3.000000721986
 30
0.0
 11
159.437276425587
 21
4.500000721986
 31
0.0
  0
LINE
  8
CUT
  5
829
 10
156.437276425587
 20
7.500000721986
 30
0.0
 11
154.937276425587
 21
7.500000721986
 31
0.0
  0
ARC
  8
CUT
  5
82A
 10
154.937276425587
 20
10.500000721986
 30
0.0
 40
3.0
 50
180.0
 51
270.0
  0
ARC
  8
CUT
  5
82B
 10
156.437276425587
 20
4.500000721986
 30
0.0
 40
3.0
 50
0.0
 51
90.0
  0
LINE
  8
CUT
  5
82C
 10
151.937276425587
 20
10.500000721986
 30
0.0
 11
151.937276425587
 21
12.000000721986
 31
0.0
  0
LINE
  8
CUT
  5
82D
 10
154.937276425587
 20
15.000000721986
 30
0.0
 11
178.937276425587
 21
15.000000721986
 31
0.0
  0
ARC
  8
CUT
  5
82E
 10
178.937276425587
 20
12.000000721986
 30
0.0
 40
3.0
 50
0.0
 51
90.0
  0
ARC
  8
CUT
  5
82F
 10
154.937276425587
 20
12.000000721986
 30
0.0
 40
3.0
 50
90.0
 51
180.0
  0
LINE
  8
CUT
  5
830
 10
181.937276425587
 20
12.000000721986
 30
0.0
 11
181.937276425587
 21
10.500000721986
 31
0.0
  0
LINE
  8
CUT
  5
831
 10
178.937276425587
 20
7.500000721986
 30
0.0
 11
177.437276425587
 21
7.500000721986
 31
0.0
  0
ARC
  8
CUT
  5
832
 10
178.937276425587
 20
10.500000721986
 30
0.0
 40
3.0
 50
270.0
 51
360.0
  0
LINE
  8
CUT
  5
833
 10
174.437276425587
 20
4.500000721986
 30
0.0
 11
174.437276425587
 21
3.000000721986
 31
0.0
  0
ARC
  8
CUT
  5
834
 10
177.437276425587
 20
4.500000721986
 30
0.0
 40
3.0
 50
90.0
 51
180.0
  0
LINE
  8
CUT
  5
835
 10
177.437276425587
 20
0.000000721986
 30
0.0
 11
223.937276425587
 21
0.000000721986
 31
0.0
  0
ARC
  8
CUT
  5
836
 10
223.937276425587
 20
3.000000721986
 30
0.0
 40
3.0
 50
270.0
 51
360.0
  0
ARC
  8
CUT
  5
837
 10
177.437276425587
 20
3.000000721986
 30
0.0
 40
3.0
 50
180.0
 51
270.0
  0
LINE
  8
CUT
  5
838
 10
226.937276425587
 20
3.000000721986
 30
0.0
 11
226.937276425587
 21
4.500000721986
 31
0.0
  0
LINE
  8
CUT
  5
839
 10
223.937276425587
 20
7.500000721986
 30
0.0
 11
222.437276425587
 21
7.500000721986
 31
0.0
  0
ARC
  8
CUT
  5
83A
 10
223.937276425587
 20
4.500000721986
 30
0.0
 40
3.0
 50
0.0
 51
90.0
  0
LINE
  8
CUT
  5
83B
 10
219.437276425587
 20
10.500000721986
 30
0.0
 11
219.437276425587
 21
12.000000721986
 31
0.0
  0
ARC
  8
CUT
  5
83C
 10
222.437276425587
 20
10.500000721986
 30
0.0
 40
3.0
 50
180.0
 51
270.0
  0
LINE
  8
CUT
  5
83D
 10
222.437276425587
 20
15.000000721986
 30
0.0
 11
246.437276425587
 21
15.000000721986
 31
0.0
  0
ARC
  8
CUT
  5
83E
 10
246.437276425587
 20
12.000000721986
 30
0.0
 40
3.0
 50
0.0
 51
90.0
  0
ARC
  8
CUT
  5
83F
 10
222.437276425587
 20
12.000000721986
 30
0.0
 40
3.0
 50
90.0
 51
180.0
  0
LINE
  8
CUT
  5
840
 10
249.437276425587
 20
12.000000721986
 30
0.0
 11
249.437276425587
 21
10.500000721986
 31
0.0
  0
LINE
  8
CUT
  5
841
 10
246.437276425587
 20
7.500000721986
 30
0.0
 11
244.937276425587
 21
7.500000721986
 31
0.0
  0
ARC
  8
CUT
  5
842
 10
246.437276425587
 20
10.500000721986
 30
0.0
 40
3.0
 50
270.0
 51
360.0
  0
LINE
  8
CUT
  5
843
 10
241.937276425587
 20
4.500000721986
 30
0.0
 11
241.937276425587
 21
3.000000721986
 31
0.0
  0
ARC
  8
CUT
  5
844
 10
244.937276425587
 20
4.500000721986
 30
0.0
 40
3.0
 50
90.0
 51
180.0
  0
LINE
  8
CUT
  5
845
 10
244.937276425587
 20
0.000000721986
 30
0.0
 11
264.448513628283
 21
0.000000721986
 31
0.0
  0
ARC
  8
CUT
  5
846
 10
244.937276425587
 20
3.000000721986
 30
0.0
 40
3.0
 50
180.0
 51
270.0
  0
LINE
  8
CUT
  5
847
 10
4.247346484924
 20
373.026370573571
 30
0.0
 11
14.886909439764
 21
373.026370573571
 31
0.0
  0
LINE
  8
CUT
  5
848
 10
17.886909439764
 20
376.026370573571
 30
0.0
 11
17.886909439764
 21
377.526370573571
 31
0.0
  0
ARC
  8
CUT
  5
849
 10
14.886909439764
 20
376.026370573571
 30
0.0
 40
3.0
 50
270.0
 51
360.0
  0
ARC
  8
CUT
  5
84A
 10
14.886909439764
 20
377.526370573571
 30
0.0
 40
3.0
 50
0.0
 51
90.0
  0
LINE
  8
CUT
  5
84B
 10
14.886909439764
 20
380.526370573571
 30
0.0
 11
13.386909439764
 21
380.526370573571
 31
0.0
  0
LINE
  8
CUT
  5
84C
 10
10.386909439764
 20
383.526370573571
 30
0.0
 11
10.386909439764
 21
385.026370573571
 31
0.0
  0
ARC
  8
CUT
  5
84D
 10
13.386909439764
 20
383.526370573571
 30
0.0
 40
3.0
 50
180.0
 51
270.0
  0
ARC
  8
CUT
  5
84E
 10
13.386909439764
 20
385.026370573571
 30
0.0
 40
3.0
 50
90.0
 51
180.0
  0
LINE
  8
CUT
  5
84F
 10
13.386909439764
 20
388.026370573571
 30
0.0
 11
52.386909439764
 21
388.026370573571
 31
0.0
  0
LINE
  8
CUT
  5
850
 10
55.386909439764
 20
385.026370573571
 30
0.0
 11
55.386909439764
 21
383.526370573571
 31
0.0
  0
ARC
  8
CUT
  5
851
 10
52.386909439764
 20
385.026370573571
 30
0.0
 40
3.0
 50
0.0
 51
90.0
  0
LINE
  8
CUT
  5
852
 10
52.386909439764
 20
380.526370573571
 30
0.0
 11
50.886909439764
 21
380.526370573571
 31
0.0
  0
ARC
  8
CUT
  5
853
 10
52.386909439764
 20
383.526370573571
 30
0.0
 40
3.0
 50
270.0
 51
360.0
  0
LINE
  8
CUT
  5
854
 10
47.886909439764
 20
377.526370573571
 30
0.0
 11
47.886909439764
 21
376.026370573571
 31
0.0
  0
ARC
  8
CUT
  5
855
 10
50.886909439764
 20
377.526370573571
 30
0.0
 40
3.0
 50
90.0
 51
180.0
  0
LINE
  8
CUT
  5
856
 10
50.886909439764
 20
373.026370573571
 30
0.0
 11
82.386909439764
 21
373.026370573571
 31
0.0
  0
ARC
  8
CUT
  5
857
 10
82.386909439764
 20
376.026370573571
 30
0.0
 40
3.0
 50
270.0
 51
360.0
  0
ARC
  8
CUT
  5
858
 10
50.886909439764
 20
376.026370573571
 30
0.0
 40
3.0
 50
180.0
 51
270.0
  0
LINE
  8
CUT
  5
859
 10
85.386909439764
 20
376.026370573571
 30
0.0
 11
85.386909439764
 21
377.526370573571
 31
0.0
  0
LINE
  8
CUT
  5
85A
 10
82.386909439764
 20
380.526370573571
 30
0.0
 11
80.886909439764
 21
380.526370573571
 31
0.0
  0
ARC
  8
CUT
  5
85B
 10
82.386909439764
 20
377.526370573571
 30
0.0
 40
3.0
 50
0.0
 51
90.0
  0
LINE
  8
CUT
  5
85C
 10
77.886909439764
 20
383.526370573571
 30
0.0
 11
77.886909439764
 21
385.026370573571
 31
0.0
  0
ARC
  8
CUT
  5
85D
 10
80.886909439764
 20
383.526370573571
 30
0.0
 40
3.0
 50
180.0
 51
270.0
  0
LINE
  8
CUT
  5
85E
 10
80.886909439764
 20
388.026370573571
 30
0.0
 11
119.886909439764
 21
388.026370573571
 31
0.0
  0
ARC
  8
CUT
  5
85F
 10
80.886909439764
 20
385.026370573571
 30
0.0
 40
3.0
 50
90.0
 51
180.0
  0
LINE
  8
CUT
  5
860
 10
122.886909439764
 20
385.026370573571
 30
0.0
 11
122.886909439764
 21
383.526370573571
 31
0.0
  0
ARC
  8
CUT
  5
861
 10
119.886909439764
 20
385.026370573571
 30
0.0
 40
3.0
 50
0.0
 51
90.0
  0
LINE
  8
CUT
  5
862
 10
119.886909439764
 20
380.526370573571
 30
0.0
 11
118.386909439764
 21
380.526370573571
 31
0.0
  0
ARC
  8
CUT
  5
863
 10
119.886909439764
 20
383.526370573571
 30
0.0
 40
3.0
 50
270.0
 51
360.0
  0
LINE
  8
CUT
  5
864
 10
115.386909439764
 20
377.526370573571
 30
0.0
 11
115.386909439764
 21
376.026370573571
 31
0.0
  0
ARC
  8
CUT
  5
865
 10
118.386909439764
 20
377.526370573571
 30
0.0
 40
3.0
 50
90.0
 51
180.0
  0
LINE
  8
CUT
  5
866
 10
118.386909439764
 20
373.026370573571
 30
0.0
 11
149.886909439764
 21
373.026370573571
 31
0.0
  0
ARC
  8
CUT
  5
867
 10
118.386909439764
 20
376.026370573571
 30
0.0
 40
3.0
 50
180.0
 51
270.0
  0
LINE
  8
CUT
  5
868
 10
152.886909439764
 20
376.026370573571
 30
0.0
 11
152.886909439764
 21
377.526370573571
 31
0.0
  0
ARC
  8
CUT
  5
869
 10
149.886909439764
 20
376.026370573571
 30
0.0
 40
3.0
 50
270.0
 51
360.0
  0
LINE
  8
CUT
  5
86A
 10
149.886909439764
 20
380.526370573571
 30
0.0
 11
148.386909439764
 21
380.526370573571
 31
0.0
  0
ARC
  8
CUT
  5
86B
 10
148.386909439764
 20
383.526370573571
 30
0.0
 40
3.0
 50
180.0
 51
270.0
  0
ARC
  8
CUT
  5
86C
 10
149.886909439764
 20
377.526370573571
 30
0.0
 40
3.0
 50
0.0
 51
90.0
  0
LINE
  8
CUT
  5
86D
 10
145.386909439764
 20
383.526370573571
 30
0.0
 11
145.386909439764
 21
385.026370573571
 31
0.0
  0
LINE
  8
CUT
  5
86E
 10
148.386909439764
 20
388.026370573571
 30
0.0
 11
187.386909439764
 21
388.026370573571
 31
0.0
  0
ARC
  8
CUT
  5
86F
 10
187.386909439764
 20
385.026370573571
 30
0.0
 40
3.0
 50
0.0
 51
90.0
  0
ARC
  8
CUT
  5
870
 10
148.386909439764
 20
385.026370573571
 30
0.0
 40
3.0
 50
90.0
 51
180.0
  0
LINE
  8
CUT
  5
871
 10
190.386909439764
 20
385.026370573571
 30
0.0
 11
190.386909439764
 21
383.526370573571
 31
0.0
  0
LINE
  8
CUT
  5
872
 10
187.386909439764
 20
380.526370573571
 30
0.0
 11
185.886909439764
 21
380.526370573571
 31
0.0
  0
ARC
  8
CUT
  5
873
 10
187.386909439764
 20
383.526370573571
 30
0.0
 40
3.0
 50
270.0
 51
360.0
  0
LINE
  8
CUT
  5
874
 10
182.886909439764
 20
377.526370573571
 30
0.0
 11
182.886909439764
 21
376.026370573571
 31
0.0
  0
ARC
  8
CUT
  5
875
 10
185.886909439764
 20
377.526370573571
 30
0.0
 40
3.0
 50
90.0
 51
180.0
  0
LINE
  8
CUT
  5
876
 10
185.886909439764
 20
373.026370573571
 30
0.0
 11
217.386909439764
 21
373.02637057357
 31
0.0
  0
ARC
  8
CUT
  5
877
 10
185.886909439764
 20
376.026370573571
 30
0.0
 40
3.0
 50
180.0
 51
270.0
  0
LINE
  8
CUT
  5
878
 10
220.386909439764
 20
376.02637057357
 30
0.0
 11
220.386909439764
 21
377.52637057357
 31
0.0
  0
ARC
  8
CUT
  5
879
 10
217.386909439764
 20
376.02637057357
 30
0.0
 40
3.0
 50
270.0
 51
360.0
  0
LINE
  8
CUT
  5
87A
 10
217.386909439764
 20
380.52637057357
 30
0.0
 11
215.886909439764
 21
380.52637057357
 31
0.0
  0
ARC
  8
CUT
  5
87B
 10
217.386909439764
 20
377.52637057357
 30
0.0
 40
3.0
 50
0.0
 51
90.0
  0
LINE
  8
CUT
  5
87C
 10
212.886909439764
 20
383.52637057357
 30
0.0
 11
212.886909439764
 21
385.02637057357
 31
0.0
  0
ARC
  8
CUT
  5
87D
 10
215.886909439764
 20
383.52637057357
 30
0.0
 40
3.0
 50
180.0
 51
270.0
  0
LINE
  8
CUT
  5
87E
 10
215.886909439764
 20
388.02637057357
 30
0.0
 11
254.886909439764
 21
388.02637057357
 31
0.0
  0
ARC
  8
CUT
  5
87F
 10
215.886909439764
 20
385.02637057357
 30
0.0
 40
3.0
 50
90.0
 51
180.0
  0
LINE
  8
CUT
  5
880
 10
257.886909439764
 20
385.02637057357
 30
0.0
 11
257.886909439764
 21
383.52637057357
 31
0.0
  0
ARC
  8
CUT
  5
881
 10
254.886909439764
 20
385.02637057357
 30
0.0
 40
3.0
 50
0.0
 51
90.0
  0
LINE
  8
CUT
  5
882
 10
254.886909439764
 20
380.52637057357
 30
0.0
 11
253.386909439764
 21
380.52637057357
 31
0.0
  0
ARC
  8
CUT
  5
883
 10
254.886909439764
 20
383.52637057357
 30
0.0
 40
3.0
 50
270.0
 51
360.0
  0
LINE
  8
CUT
  5
884
 10
250.386909439764
 20
377.52637057357
 30
0.0
 11
250.386909439764
 21
376.02637057357
 31
0.0
  0
ARC
  8
CUT
  5
885
 10
253.386909439764
 20
376.02637057357
 30
0.0
 40
3.0
 50
180.0
 51
270.0
  0
ARC
  8
CUT
  5
886
 10
253.386909439764
 20
377.52637057357
 30
0.0
 40
3.0
 50
90.0
 51
180.0
  0
LINE
  8
CUT
  5
887
 10
253.386909439764
 20
373.02637057357
 30
0.0
 11
264.448513628284
 21
373.02637057357
 31
0.0
  0
LINE
  8
CUT
  5
888
 10
264.448513628284
 20
373.02637057357
 30
0.0
 11
264.448513628283
 21
0.000000721986
 31
0.0
  0
LINE
  8
SCORE
  5
889
 10
67.465491366787
 20
328.306039611302
 30
0.0
 11
67.446345420751
 21
237.17478367917
 31
0.0
  0
LINE
  8
SCORE
  5
88A
 10
67.465491366787
 20
328.306039611302
 30
0.0
 11
108.322587838184
 21
301.97643073591
 31
0.0
  0
LINE
  8
CUT
  5
88B
 10
108.152033251154
 20
304.206686824578
 30
0.0
 11
104.235902866371
 21
355.415943560355
 31
0.0
  0
LINE
  8
SCORE
  5
88C
 10
104.235902866371
 20
355.415943560355
 30
0.0
 11
67.465491366787
 21
328.306039611302
 31
0.0
  0
ARC
  8
CUT
  5
88D
 10
111.147957033924
 20
282.758628076262
 30
0.0
 40
19.424382877131
 50
266.524795896281
 51
93.065955084676
  0
ARC
  8
CUT
  5
88E
 10
118.084101587694
 20
282.860338708639
 30
0.0
 40
17.853539050646
 50
123.144683654868
 51
236.148013142578
  0
LINE
  8
CUT
  5
88F
 10
110.35629444559
 20
355.055334864905
 30
0.0
 11
122.705406422899
 21
347.2307713087
 31
0.0
  0
ARC
  8
CUT
  5
890
 10
118.653736162068
 20
338.088344492067
 30
0.0
 40
10.0
 50
11.745833411727
 51
66.098405723393
  0
LINE
  8
CUT
  5
891
 10
128.444338950701
 20
340.124050029521
 30
0.0
 11
138.251540838514
 21
292.956905083982
 31
0.0
  0
LINE
  8
SCORE
  5
892
 10
67.446345420751
 20
237.17478367917
 30
0.0
 11
108.138798847002
 21
263.568744877986
 31
0.0
  0
LINE
  8
CUT
  5
893
 10
107.954209398034
 20
261.425909205647
 30
0.0
 11
103.540986311801
 21
210.194314376831
 31
0.0
  0
LINE
  8
SCORE
  5
894
 10
103.540986311801
 20
210.194314376831
 30
0.0
 11
67.446345420751
 21
237.17478367917
 31
0.0
  0
LINE
  8
CUT
  5
895
 10
127.897437227907
 20
225.24832448635
 30
0.0
 11
138.143810485827
 21
272.094825975676
 31
0.0
  0
ARC
  8
CUT
  5
896
 10
89.298526895351
 20
282.778377396714
 30
0.0
 40
50.0
 50
347.662428858051
 51
11.745833411727
  0
ARC
  8
CUT
  5
897
 10
111.912254267879
 20
282.862896668749
 30
0.0
 40
15.0
 50
265.140331097832
 51
94.859668902168
  0
ARC
  8
CUT
  5
898
 10
106.930890542289
 20
349.037184511163
 30
0.0
 40
6.924704006743
 50
60.352383252619
 51
112.903768006149
  0
LINE
  8
CUT
  5
899
 10
109.66137789102
 20
210.554923072281
 30
0.0
 11
122.010489868329
 21
218.379486628486
 31
0.0
  0
ARC
  8
CUT
  5
89A
 10
117.315842917587
 20
228.360167823104
 30
0.0
 40
11.029673934469
 50
295.191045357731
 51
343.612404688888
  0
ARC
  8
CUT
  5
89B
 10
106.235973987719
 20
216.573073426023
 30
0.0
 40
6.924704006743
 50
247.096231993851
 51
299.647616747381
  0
LINE
  8
CUT
  5
89C
 10
4.247346484924
 20
373.026370573571
 30
0.0
 11
14.886909439764
 21
373.026370573571
 31
0.0
  0
LINE
  8
CUT
  5
89D
 10
17.886909439764
 20
376.026370573571
 30
0.0
 11
17.886909439764
 21
377.526370573571
 31
0.0
  0
ARC
  8
CUT
  5
89E
 10
14.886909439764
 20
376.026370573571
 30
0.0
 40
3.0
 50
270.0
 51
360.0
  0
ARC
  8
CUT
  5
89F
 10
14.886909439764
 20
377.526370573571
 30
0.0
 40
3.0
 50
0.0
 51
90.0
  0
LINE
  8
CUT
  5
8A0
 10
14.886909439764
 20
380.526370573571
 30
0.0
 11
13.386909439764
 21
380.526370573571
 31
0.0
  0
LINE
  8
CUT
  5
8A1
 10
10.386909439764
 20
383.526370573571
 30
0.0
 11
10.386909439764
 21
385.026370573571
 31
0.0
  0
ARC
  8
CUT
  5
8A2
 10
13.386909439764
 20
383.526370573571
 30
0.0
 40
3.0
 50
180.0
 51
270.0
  0
ARC
  8
CUT
  5
8A3
 10
13.386909439764
 20
385.026370573571
 30
0.0
 40
3.0
 50
90.0
 51
180.0
  0
LINE
  8
CUT
  5
8A4
 10
13.386909439764
 20
388.026370573571
 30
0.0
 11
52.386909439764
 21
388.026370573571
 31
0.0
  0
LINE
  8
CUT
  5
8A5
 10
55.386909439764
 20
385.026370573571
 30
0.0
 11
55.386909439764
 21
383.526370573571
 31
0.0
  0
ARC
  8
CUT
  5
8A6
 10
52.386909439764
 20
385.026370573571
 30
0.0
 40
3.0
 50
0.0
 51
90.0
  0
LINE
  8
CUT
  5
8A7
 10
52.386909439764
 20
380.526370573571
 30
0.0
 11
50.886909439764
 21
380.526370573571
 31
0.0
  0
ARC
  8
CUT
  5
8A8
 10
52.386909439764
 20
383.526370573571
 30
0.0
 40
3.0
 50
270.0
 51
360.0
  0
LINE
  8
CUT
  5
8A9
 10
47.886909439764
 20
377.526370573571
 30
0.0
 11
47.886909439764
 21
376.026370573571
 31
0.0
  0
ARC
  8
CUT
  5
8AA
 10
50.886909439764
 20
377.526370573571
 30
0.0
 40
3.0
 50
90.0
 51
180.0
  0
LINE
  8
CUT
  5
8AB
 10
50.886909439764
 20
373.026370573571
 30
0.0
 11
82.386909439764
 21
373.026370573571
 31
0.0
  0
ARC
  8
CUT
  5
8AC
 10
82.386909439764
 20
376.026370573571
 30
0.0
 40
3.0
 50
270.0
 51
360.0
  0
ARC
  8
CUT
  5
8AD
 10
50.886909439764
 20
376.026370573571
 30
0.0
 40
3.0
 50
180.0
 51
270.0
  0
LINE
  8
CUT
  5
8AE
 10
85.386909439764
 20
376.026370573571
 30
0.0
 11
85.386909439764
 21
377.526370573571
 31
0.0
  0
LINE
  8
CUT
  5
8AF
 10
82.386909439764
 20
380.526370573571
 30
0.0
 11
80.886909439764
 21
380.526370573571
 31
0.0
  0
ARC
  8
CUT
  5
8B0
 10
82.386909439764
 20
377.526370573571
 30
0.0
 40
3.0
 50
0.0
 51
90.0
  0
LINE
  8
CUT
  5
8B1
 10
77.886909439764
 20
383.526370573571
 30
0.0
 11
77.886909439764
 21
385.026370573571
 31
0.0
  0
ARC
  8
CUT
  5
8B2
 10
80.886909439764
 20
383.526370573571
 30
0.0
 40
3.0
 50
180.0
 51
270.0
  0
LINE
  8
CUT
  5
8B3
 10
80.886909439764
 20
388.026370573571
 30
0.0
 11
119.886909439764
 21
388.026370573571
 31
0.0
  0
ARC
  8
CUT
  5
8B4
 10
80.886909439764
 20
385.026370573571
 30
0.0
 40
3.0
 50
90.0
 51
180.0
  0
LINE
  8
CUT
  5
8B5
 10
122.886909439764
 20
385.026370573571
 30
0.0
 11
122.886909439764
 21
383.526370573571
 31
0.0
  0
ARC
  8
CUT
  5
8B6
 10
119.886909439764
 20
385.026370573571
 30
0.0
 40
3.0
 50
0.0
 51
90.0
  0
LINE
  8
CUT
  5
8B7
 10
119.886909439764
 20
380.526370573571
 30
0.0
 11
118.386909439764
 21
380.526370573571
 31
0.0
  0
ARC
  8
CUT
  5
8B8
 10
119.886909439764
 20
383.526370573571
 30
0.0
 40
3.0
 50
270.0
 51
360.0
  0
LINE
  8
CUT
  5
8B9
 10
115.386909439764
 20
377.526370573571
 30
0.0
 11
115.386909439764
 21
376.026370573571
 31
0.0
  0
ARC
  8
CUT
  5
8BA
 10
118.386909439764
 20
377.526370573571
 30
0.0
 40
3.0
 50
90.0
 51
180.0
  0
LINE
  8
CUT
  5
8BB
 10
118.386909439764
 20
373.026370573571
 30
0.0
 11
149.886909439764
 21
373.026370573571
 31
0.0
  0
ARC
  8
CUT
  5
8BC
 10
118.386909439764
 20
376.026370573571
 30
0.0
 40
3.0
 50
180.0
 51
270.0
  0
LINE
  8
CUT
  5
8BD
 10
152.886909439764
 20
376.026370573571
 30
0.0
 11
152.886909439764
 21
377.526370573571
 31
0.0
  0
ARC
  8
CUT
  5
8BE
 10
149.886909439764
 20
376.026370573571
 30
0.0
 40
3.0
 50
270.0
 51
360.0
  0
LINE
  8
CUT
  5
8BF
 10
149.886909439764
 20
380.526370573571
 30
0.0
 11
148.386909439764
 21
380.526370573571
 31
0.0
  0
ARC
  8
CUT
  5
8C0
 10
148.386909439764
 20
383.526370573571
 30
0.0
 40
3.0
 50
180.0
 51
270.0
  0
ARC
  8
CUT
  5
8C1
 10
149.886909439764
 20
377.526370573571
 30
0.0
 40
3.0
 50
0.0
 51
90.0
  0
LINE
  8
CUT
  5
8C2
 10
145.386909439764
 20
383.526370573571
 30
0.0
 11
145.386909439764
 21
385.026370573571
 31
0.0
  0
LINE
  8
CUT
  5
8C3
 10
148.386909439764
 20
388.026370573571
 30
0.0
 11
187.386909439764
 21
388.026370573571
 31
0.0
  0
ARC
  8
CUT
  5
8C4
 10
187.386909439764
 20
385.026370573571
 30
0.0
 40
3.0
 50
0.0
 51
90.0
  0
ARC
  8
CUT
  5
8C5
 10
148.386909439764
 20
385.026370573571
 30
0.0
 40
3.0
 50
90.0
 51
180.0
  0
LINE
  8
CUT
  5
8C6
 10
190.386909439764
 20
385.026370573571
 30
0.0
 11
190.386909439764
 21
383.526370573571
 31
0.0
  0
LINE
  8
CUT
  5
8C7
 10
187.386909439764
 20
380.526370573571
 30
0.0
 11
185.886909439764
 21
380.526370573571
 31
0.0
  0
ARC
  8
CUT
  5
8C8
 10
187.386909439764
 20
383.526370573571
 30
0.0
 40
3.0
 50
270.0
 51
360.0
  0
LINE
  8
CUT
  5
8C9
 10
182.886909439764
 20
377.526370573571
 30
0.0
 11
182.886909439764
 21
376.026370573571
 31
0.0
  0
ARC
  8
CUT
  5
8CA
 10
185.886909439764
 20
377.526370573571
 30
0.0
 40
3.0
 50
90.0
 51
180.0
  0
LINE
  8
CUT
  5
8CB
 10
185.886909439764
 20
373.026370573571
 30
0.0
 11
217.386909439764
 21
373.02637057357
 31
0.0
  0
ARC
  8
CUT
  5
8CC
 10
185.886909439764
 20
376.026370573571
 30
0.0
 40
3.0
 50
180.0
 51
270.0
  0
LINE
  8
CUT
  5
8CD
 10
220.386909439764
 20
376.02637057357
 30
0.0
 11
220.386909439764
 21
377.52637057357
 31
0.0
  0
ARC
  8
CUT
  5
8CE
 10
217.386909439764
 20
376.02637057357
 30
0.0
 40
3.0
 50
270.0
 51
360.0
  0
LINE
  8
CUT
  5
8CF
 10
217.386909439764
 20
380.52637057357
 30
0.0
 11
215.886909439764
 21
380.52637057357
 31
0.0
  0
ARC
  8
CUT
  5
8D0
 10
217.386909439764
 20
377.52637057357
 30
0.0
 40
3.0
 50
0.0
 51
90.0
  0
LINE
  8
CUT
  5
8D1
 10
212.886909439764
 20
383.52637057357
 30
0.0
 11
212.886909439764
 21
385.02637057357
 31
0.0
  0
ARC
  8
CUT
  5
8D2
 10
215.886909439764
 20
383.52637057357
 30
0.0
 40
3.0
 50
180.0
 51
270.0
  0
LINE
  8
CUT
  5
8D3
 10
215.886909439764
 20
388.02637057357
 30
0.0
 11
254.886909439764
 21
388.02637057357
 31
0.0
  0
ARC
  8
CUT
  5
8D4
 10
215.886909439764
 20
385.02637057357
 30
0.0
 40
3.0
 50
90.0
 51
180.0
  0
LINE
  8
CUT
  5
8D5
 10
257.886909439764
 20
385.02637057357
 30
0.0
 11
257.886909439764
 21
383.52637057357
 31
0.0
  0
ARC
  8
CUT
  5
8D6
 10
254.886909439764
 20
385.02637057357
 30
0.0
 40
3.0
 50
0.0
 51
90.0
  0
LINE
  8
CUT
  5
8D7
 10
254.886909439764
 20
380.52637057357
 30
0.0
 11
253.386909439764
 21
380.52637057357
 31
0.0
  0
ARC
  8
CUT
  5
8D8
 10
254.886909439764
 20
383.52637057357
 30
0.0
 40
3.0
 50
270.0
 51
360.0
  0
LINE
  8
CUT
  5
8D9
 10
250.386909439764
 20
377.52637057357
 30
0.0
 11
250.386909439764
 21
376.02637057357
 31
0.0
  0
ARC
  8
CUT
  5
8DA
 10
253.386909439764
 20
376.02637057357
 30
0.0
 40
3.0
 50
180.0
 51
270.0
  0
ARC
  8
CUT
  5
8DB
 10
253.386909439764
 20
377.52637057357
 30
0.0
 40
3.0
 50
90.0
 51
180.0
  0
LINE
  8
CUT
  5
8DC
 10
253.386909439764
 20
373.02637057357
 30
0.0
 11
264.448513628284
 21
373.02637057357
 31
0.0
  0
LINE
  8
CUT
  5
8DD
 10
110.641520805334
 20
297.808974296915
 30
0.0
 11
108.322587838183
 21
297.808974296915
 31
0.0
  0
LINE
  8
CUT
  5
8DE
 10
110.641520805334
 20
267.916819040582
 30
0.0
 11
108.138798847002
 21
268.033342720613
 31
0.0
  0
LINE
  8
SCORE
  5
8DF
 10
108.322587838183
 20
303.625063480112
 30
0.0
 11
108.322587838183
 21
297.808974296915
 31
0.0
  0
LINE
  8
SCORE
  5
8E0
 10
108.138798847002
 20
261.978042659093
 30
0.0
 11
108.138798847002
 21
268.033342720613
 31
0.0
  0
ARC
  8
CUT
  5
8E1
 10
-532.45427730491
 20
191.371179678032
 30
0.0
 40
536.226859637134
 50
355.917719948912
 51
4.082280051088
  0
ARC
  8
CUT
  5
8E2
 10
-531.979460797821
 20
372.789415606988
 30
0.0
 40
536.226859637134
 50
355.917719948912
 51
0.025318612297
  0
ARC
  8
CUT
  5
8E3
 10
-532.984622311214
 20
9.52568469553
 30
0.0
 40
536.226859637134
 50
358.982128201393
 51
4.082280051088
  0
ARC
  8
CUT
  5
8E4
 10
110.608220555218
 20
304.590580949103
 30
0.0
 40
2.486006993451
 50
188.883274590574
 51
258.416356353125
  0
ARC
  8
CUT
  5
8E5
 10
110.388208612585
 20
260.9190964695
 30
0.0
 40
2.486204200373
 50
99.671611472654
 51
168.237812340391
  0
LINE
  8
SCORE
  5
8E6
 10
67.465541699885
 20
145.879119554387
 30
0.0
 11
67.446395753849
 21
54.747863622254
 31
0.0
  0
LINE
  8
SCORE
  5
8E7
 10
67.465541699885
 20
145.879119554387
 30
0.0
 11
108.322638171282
 21
119.549510678994
 31
0.0
  0
LINE
  8
CUT
  5
8E8
 10
108.152083584252
 20
121.779766767662
 30
0.0
 11
104.235953199469
 21
172.989023503439
 31
0.0
  0
LINE
  8
SCORE
  5
8E9
 10
104.235953199469
 20
172.989023503439
 30
0.0
 11
67.465541699885
 21
145.879119554387
 31
0.0
  0
ARC
  8
CUT
  5
8EA
 10
111.148007367023
 20
100.331708019346
 30
0.0
 40
19.424382877131
 50
266.524795896281
 51
93.065955084676
  0
ARC
  8
CUT
  5
8EB
 10
118.084151920792
 20
100.433418651723
 30
0.0
 40
17.853539050646
 50
123.144683654868
 51
236.148013142578
  0
LINE
  8
CUT
  5
8EC
 10
110.356344778688
 20
172.62841480799
 30
0.0
 11
122.705456755997
 21
164.803851251784
 31
0.0
  0
ARC
  8
CUT
  5
8ED
 10
118.653786495166
 20
155.661424435151
 30
0.0
 40
10.0
 50
11.745833411727
 51
66.098405723393
  0
LINE
  8
CUT
  5
8EE
 10
128.444389283799
 20
157.697129972605
 30
0.0
 11
138.251591171612
 21
110.529985027066
 31
0.0
  0
LINE
  8
SCORE
  5
8EF
 10
67.446395753849
 20
54.747863622254
 30
0.0
 11
108.1388491801
 21
81.14182482107
 31
0.0
  0
LINE
  8
CUT
  5
8F0
 10
107.954259731132
 20
78.998989148731
 30
0.0
 11
103.5410366449
 21
27.767394319916
 31
0.0
  0
LINE
  8
SCORE
  5
8F1
 10
103.5410366449
 20
27.767394319916
 30
0.0
 11
67.446395753849
 21
54.747863622254
 31
0.0
  0
LINE
  8
CUT
  5
8F2
 10
127.897487561006
 20
42.821404429434
 30
0.0
 11
138.143860818925
 21
89.66790591876
 31
0.0
  0
ARC
  8
CUT
  5
8F3
 10
89.298577228449
 20
100.351457339798
 30
0.0
 40
50.0
 50
347.662428858051
 51
11.745833411727
  0
ARC
  8
CUT
  5
8F4
 10
111.912304600977
 20
100.435976611833
 30
0.0
 40
15.0
 50
265.140331097832
 51
94.859668902168
  0
ARC
  8
CUT
  5
8F5
 10
106.930940875387
 20
166.610264454248
 30
0.0
 40
6.924704006743
 50
60.352383252619
 51
112.903768006149
  0
LINE
  8
CUT
  5
8F6
 10
109.661428224118
 20
28.128003015365
 30
0.0
 11
122.010540201427
 21
35.952566571571
 31
0.0
  0
ARC
  8
CUT
  5
8F7
 10
117.315893250685
 20
45.933247766188
 30
0.0
 40
11.029673934469
 50
295.191045357731
 51
343.612404688888
  0
ARC
  8
CUT
  5
8F8
 10
106.236024320817
 20
34.146153369107
 30
0.0
 40
6.924704006743
 50
247.096231993851
 51
299.647616747381
  0
LINE
  8
CUT
  5
8F9
 10
110.641571138432
 20
115.382054239999
 30
0.0
 11
108.322638171281
 21
115.382054239999
 31
0.0
  0
LINE
  8
CUT
  5
8FA
 10
110.641571138432
 20
85.489898983666
 30
0.0
 11
108.1388491801
 21
85.606422663697
 31
0.0
  0
LINE
  8
SCORE
  5
8FB
 10
108.322638171281
 20
121.198143423197
 30
0.0
 11
108.322638171281
 21
115.382054239999
 31
0.0
  0
LINE
  8
SCORE
  5
8FC
 10
108.1388491801
 20
79.551122602177
 30
0.0
 11
108.1388491801
 21
85.752059074517
 31
0.0
  0
ARC
  8
CUT
  5
8FD
 10
110.608270888316
 20
122.163660892187
 30
0.0
 40
2.486006993451
 50
188.883274590574
 51
258.416356353125
  0
ARC
  8
CUT
  5
8FE
 10
110.388258945683
 20
78.492176412585
 30
0.0
 40
2.486204200373
 50
99.671611472654
 51
168.237812340391
  0
LINE
  8
CUT
  5
8FF
 10
294.503995748422
 20
325.19794294705
 30
0.0
 11
289.983056448816
 21
320.677003647444
 31
0.0
  0
ARC
  8
CUT
  5
900
 10
291.675568623676
 20
328.026370071796
 30
0.0
 40
4.0
 50
315.0
 51
50.415245445967
  0
LINE
  8
CUT
  5
901
 10
289.983056448816
 20
244.330137695448
 30
0.0
 11
294.309983842121
 21
240.003210302142
 31
0.0
  0
LINE
  8
CUT
  5
902
 10
294.309983842121
 20
234.34635605265
 30
0.0
 11
289.508239941727
 21
229.544612152256
 31
0.0
  0
ARC
  8
CUT
  5
903
 10
291.481556717375
 20
237.174783177396
 30
0.0
 40
4.0
 50
315.0
 51
45.0
  0
LINE
  8
CUT
  5
904
 10
289.508239941727
 20
153.19774620026
 30
0.0
 11
293.835167335033
 21
148.870818806954
 31
0.0
  0
LINE
  8
SCORE
  5
905
 10
295.481556717375
 20
237.174783177396
 30
0.0
 11
354.542492429802
 21
237.174783177396
 31
0.0
  0
LINE
  8
CUT
  5
906
 10
293.835167335033
 20
143.213964557462
 30
0.0
 11
289.033423434639
 21
138.412220657068
 31
0.0
  0
ARC
  8
CUT
  5
907
 10
291.006740210286
 20
146.042391682208
 30
0.0
 40
4.0
 50
315.0
 51
45.0
  0
LINE
  8
CUT
  5
908
 10
289.033423434639
 20
62.065354705072
 30
0.0
 11
293.360350827944
 21
57.738427344958
 31
0.0
  0
LINE
  8
CUT
  5
909
 10
289.983056448816
 20
334.615982129213
 30
0.0
 11
294.224444409816
 21
331.109101365118
 31
0.0
  0
LINE
  8
CUT
  5
90A
 10
293.360350827944
 20
52.081573095465
 30
0.0
 11
288.977894935423
 21
47.699117169753
 31
0.0
  0
ARC
  8
CUT
  5
90B
 10
290.531923703198
 20
54.910000220211
 30
0.0
 40
4.0
 50
315.0
 51
45.0
  0
LINE
  8
SCORE
  5
90C
 10
295.006727010835
 20
146.0321157182
 30
0.0
 11
354.561688708937
 21
145.879119052612
 31
0.0
  0
LINE
  8
SCORE
  5
90D
 10
294.531923703198
 20
54.910000218138
 30
0.0
 11
354.561688708937
 21
54.91000018702
 31
0.0
  0
LINE
  8
CUT
  5
90E
 10
290.253769201233
 20
0.000000220212
 30
0.0
 11
308.533423434639
 21
0.000000220211
 31
0.0
  0
LINE
  8
CUT
  5
90F
 10
311.533423434639
 20
3.000000220211
 30
0.0
 11
311.533423434639
 21
4.500000220211
 31
0.0
  0
ARC
  8
CUT
  5
910
 10
308.533423434639
 20
3.000000220211
 30
0.0
 40
3.0
 50
270.0
 51
360.0
  0
LINE
  8
CUT
  5
911
 10
308.533423434639
 20
7.500000220211
 30
0.0
 11
307.033423434639
 21
7.500000220211
 31
0.0
  0
ARC
  8
CUT
  5
912
 10
308.533423434639
 20
4.500000220211
 30
0.0
 40
3.0
 50
0.0
 51
90.0
  0
LINE
  8
CUT
  5
913
 10
304.033423434639
 20
10.500000220211
 30
0.0
 11
304.033423434639
 21
12.000000220211
 31
0.0
  0
ARC
  8
CUT
  5
914
 10
307.033423434639
 20
12.000000220211
 30
0.0
 40
3.0
 50
90.0
 51
180.0
  0
ARC
  8
CUT
  5
915
 10
307.033423434639
 20
10.500000220211
 30
0.0
 40
3.0
 50
180.0
 51
270.0
  0
LINE
  8
CUT
  5
916
 10
307.033423434639
 20
15.000000220211
 30
0.0
 11
331.033423434639
 21
15.000000220211
 31
0.0
  0
ARC
  8
CUT
  5
917
 10
331.033423434639
 20
12.000000220211
 30
0.0
 40
3.0
 50
0.0
 51
90.0
  0
LINE
  8
CUT
  5
918
 10
334.033423434639
 20
12.000000220211
 30
0.0
 11
334.033423434639
 21
10.500000220211
 31
0.0
  0
LINE
  8
CUT
  5
919
 10
331.033423434639
 20
7.500000220211
 30
0.0
 11
329.533423434639
 21
7.500000220211
 31
0.0
  0
ARC
  8
CUT
  5
91A
 10
331.033423434639
 20
10.500000220211
 30
0.0
 40
3.0
 50
270.0
 51
360.0
  0
LINE
  8
CUT
  5
91B
 10
326.533423434639
 20
4.500000220211
 30
0.0
 11
326.533423434639
 21
3.000000220211
 31
0.0
  0
ARC
  8
CUT
  5
91C
 10
329.533423434639
 20
4.500000220211
 30
0.0
 40
3.0
 50
90.0
 51
180.0
  0
LINE
  8
CUT
  5
91D
 10
329.533423434639
 20
0.000000220211
 30
0.0
 11
376.033423434639
 21
0.000000220211
 31
0.0
  0
ARC
  8
CUT
  5
91E
 10
376.033423434639
 20
3.000000220211
 30
0.0
 40
3.0
 50
270.0
 51
360.0
  0
ARC
  8
CUT
  5
91F
 10
329.533423434639
 20
3.000000220211
 30
0.0
 40
3.0
 50
180.0
 51
270.0
  0
LINE
  8
CUT
  5
920
 10
379.033423434639
 20
3.000000220211
 30
0.0
 11
379.033423434639
 21
4.500000220211
 31
0.0
  0
LINE
  8
CUT
  5
921
 10
376.033423434639
 20
7.500000220211
 30
0.0
 11
374.533423434639
 21
7.500000220211
 31
0.0
  0
ARC
  8
CUT
  5
922
 10
376.033423434639
 20
4.500000220211
 30
0.0
 40
3.0
 50
0.0
 51
90.0
  0
ARC
  8
CUT
  5
923
 10
374.533423434639
 20
10.500000220211
 30
0.0
 40
3.0
 50
180.0
 51
270.0
  0
LINE
  8
CUT
  5
924
 10
371.533423434639
 20
10.500000220211
 30
0.0
 11
371.533423434639
 21
12.000000220211
 31
0.0
  0
ARC
  8
CUT
  5
925
 10
374.533423434639
 20
12.000000220211
 30
0.0
 40
3.0
 50
90.0
 51
180.0
  0
LINE
  8
CUT
  5
926
 10
374.533423434639
 20
15.000000220211
 30
0.0
 11
398.533423434639
 21
15.000000220211
 31
0.0
  0
ARC
  8
CUT
  5
927
 10
398.533423434639
 20
12.000000220211
 30
0.0
 40
3.0
 50
0.0
 51
90.0
  0
LINE
  8
CUT
  5
928
 10
401.533423434639
 20
12.000000220211
 30
0.0
 11
401.533423434639
 21
10.500000220211
 31
0.0
  0
LINE
  8
CUT
  5
929
 10
398.533423434639
 20
7.500000220211
 30
0.0
 11
397.033423434639
 21
7.500000220211
 31
0.0
  0
ARC
  8
CUT
  5
92A
 10
398.533423434639
 20
10.500000220211
 30
0.0
 40
3.0
 50
270.0
 51
360.0
  0
LINE
  8
CUT
  5
92B
 10
394.033423434639
 20
4.500000220211
 30
0.0
 11
394.033423434639
 21
3.000000220211
 31
0.0
  0
ARC
  8
CUT
  5
92C
 10
397.033423434639
 20
3.000000220211
 30
0.0
 40
3.0
 50
180.0
 51
270.0
  0
ARC
  8
CUT
  5
92D
 10
397.033423434639
 20
4.500000220211
 30
0.0
 40
3.0
 50
90.0
 51
180.0
  0
LINE
  8
CUT
  5
92E
 10
397.033423434639
 20
0.000000220211
 30
0.0
 11
443.533423434639
 21
0.000000220211
 31
0.0
  0
ARC
  8
CUT
  5
92F
 10
443.533423434639
 20
3.000000220211
 30
0.0
 40
3.0
 50
270.0
 51
360.0
  0
LINE
  8
CUT
  5
930
 10
446.533423434639
 20
3.000000220211
 30
0.0
 11
446.533423434639
 21
4.500000220211
 31
0.0
  0
LINE
  8
CUT
  5
931
 10
443.533423434639
 20
7.500000220211
 30
0.0
 11
442.033423434639
 21
7.500000220211
 31
0.0
  0
ARC
  8
CUT
  5
932
 10
442.033423434639
 20
10.500000220211
 30
0.0
 40
3.0
 50
180.0
 51
270.0
  0
ARC
  8
CUT
  5
933
 10
443.533423434639
 20
4.500000220211
 30
0.0
 40
3.0
 50
0.0
 51
90.0
  0
LINE
  8
CUT
  5
934
 10
439.033423434639
 20
10.500000220211
 30
0.0
 11
439.033423434639
 21
12.000000220211
 31
0.0
  0
LINE
  8
CUT
  5
935
 10
442.033423434639
 20
15.000000220211
 30
0.0
 11
466.033423434639
 21
15.000000220211
 31
0.0
  0
ARC
  8
CUT
  5
936
 10
466.033423434639
 20
12.000000220211
 30
0.0
 40
3.0
 50
0.0
 51
90.0
  0
ARC
  8
CUT
  5
937
 10
442.033423434639
 20
12.000000220211
 30
0.0
 40
3.0
 50
90.0
 51
180.0
  0
LINE
  8
CUT
  5
938
 10
469.033423434639
 20
12.000000220211
 30
0.0
 11
469.033423434638
 21
10.500000220211
 31
0.0
  0
LINE
  8
CUT
  5
939
 10
466.033423434638
 20
7.500000220211
 30
0.0
 11
464.533423434639
 21
7.500000220211
 31
0.0
  0
ARC
  8
CUT
  5
93A
 10
466.033423434638
 20
10.500000220211
 30
0.0
 40
3.0
 50
270.0
 51
360.0
  0
LINE
  8
CUT
  5
93B
 10
461.533423434639
 20
4.500000220211
 30
0.0
 11
461.533423434639
 21
3.000000220211
 31
0.0
  0
ARC
  8
CUT
  5
93C
 10
464.533423434639
 20
4.500000220211
 30
0.0
 40
3.0
 50
90.0
 51
180.0
  0
LINE
  8
CUT
  5
93D
 10
464.533423434639
 20
0.000000220211
 30
0.0
 11
511.033423434639
 21
0.000000220211
 31
0.0
  0
ARC
  8
CUT
  5
93E
 10
511.033423434639
 20
3.000000220211
 30
0.0
 40
3.0
 50
270.0
 51
360.0
  0
ARC
  8
CUT
  5
93F
 10
464.533423434639
 20
3.000000220211
 30
0.0
 40
3.0
 50
180.0
 51
270.0
  0
LINE
  8
CUT
  5
940
 10
514.033423434639
 20
3.000000220211
 30
0.0
 11
514.033423434639
 21
4.500000220211
 31
0.0
  0
LINE
  8
CUT
  5
941
 10
511.033423434639
 20
7.500000220211
 30
0.0
 11
509.533423434639
 21
7.500000220211
 31
0.0
  0
ARC
  8
CUT
  5
942
 10
511.033423434639
 20
4.500000220211
 30
0.0
 40
3.0
 50
0.0
 51
90.0
  0
LINE
  8
CUT
  5
943
 10
506.533423434639
 20
10.500000220211
 30
0.0
 11
506.533423434638
 21
12.000000220211
 31
0.0
  0
ARC
  8
CUT
  5
944
 10
509.533423434639
 20
10.500000220211
 30
0.0
 40
3.0
 50
180.0
 51
270.0
  0
LINE
  8
CUT
  5
945
 10
509.533423434638
 20
15.000000220211
 30
0.0
 11
533.533423434639
 21
15.000000220211
 31
0.0
  0
ARC
  8
CUT
  5
946
 10
533.533423434639
 20
12.000000220211
 30
0.0
 40
3.0
 50
0.0
 51
90.0
  0
ARC
  8
CUT
  5
947
 10
509.533423434638
 20
12.000000220211
 30
0.0
 40
3.0
 50
90.0
 51
180.0
  0
LINE
  8
CUT
  5
948
 10
536.533423434639
 20
12.000000220211
 30
0.0
 11
536.533423434639
 21
10.500000220211
 31
0.0
  0
LINE
  8
CUT
  5
949
 10
533.533423434639
 20
7.500000220211
 30
0.0
 11
532.033423434639
 21
7.500000220211
 31
0.0
  0
ARC
  8
CUT
  5
94A
 10
533.533423434639
 20
10.500000220211
 30
0.0
 40
3.0
 50
270.0
 51
360.0
  0
LINE
  8
CUT
  5
94B
 10
529.033423434639
 20
4.500000220211
 30
0.0
 11
529.033423434639
 21
3.000000220211
 31
0.0
  0
ARC
  8
CUT
  5
94C
 10
532.033423434639
 20
4.500000220211
 30
0.0
 40
3.0
 50
90.0
 51
180.0
  0
LINE
  8
CUT
  5
94D
 10
532.033423434639
 20
0.000000220211
 30
0.0
 11
551.544660637335
 21
0.000000220211
 31
0.0
  0
ARC
  8
CUT
  5
94E
 10
532.033423434639
 20
3.000000220211
 30
0.0
 40
3.0
 50
180.0
 51
270.0
  0
LINE
  8
CUT
  5
94F
 10
291.343493493976
 20
373.026370071796
 30
0.0
 11
301.983056448816
 21
373.026370071796
 31
0.0
  0
LINE
  8
CUT
  5
950
 10
304.983056448816
 20
376.026370071796
 30
0.0
 11
304.983056448816
 21
377.526370071796
 31
0.0
  0
ARC
  8
CUT
  5
951
 10
301.983056448816
 20
376.026370071796
 30
0.0
 40
3.0
 50
270.0
 51
360.0
  0
ARC
  8
CUT
  5
952
 10
301.983056448816
 20
377.526370071796
 30
0.0
 40
3.0
 50
0.0
 51
90.0
  0
LINE
  8
CUT
  5
953
 10
301.983056448816
 20
380.526370071796
 30
0.0
 11
300.483056448816
 21
380.526370071796
 31
0.0
  0
LINE
  8
CUT
  5
954
 10
297.483056448816
 20
383.526370071796
 30
0.0
 11
297.483056448816
 21
385.026370071796
 31
0.0
  0
ARC
  8
CUT
  5
955
 10
300.483056448816
 20
383.526370071796
 30
0.0
 40
3.0
 50
180.0
 51
270.0
  0
ARC
  8
CUT
  5
956
 10
300.483056448816
 20
385.026370071796
 30
0.0
 40
3.0
 50
90.0
 51
180.0
  0
LINE
  8
CUT
  5
957
 10
300.483056448816
 20
388.026370071796
 30
0.0
 11
339.483056448816
 21
388.026370071796
 31
0.0
  0
LINE
  8
CUT
  5
958
 10
342.483056448816
 20
385.026370071796
 30
0.0
 11
342.483056448816
 21
383.526370071796
 31
0.0
  0
ARC
  8
CUT
  5
959
 10
339.483056448816
 20
385.026370071796
 30
0.0
 40
3.0
 50
0.0
 51
90.0
  0
LINE
  8
CUT
  5
95A
 10
339.483056448816
 20
380.526370071796
 30
0.0
 11
337.983056448816
 21
380.526370071796
 31
0.0
  0
ARC
  8
CUT
  5
95B
 10
339.483056448816
 20
383.526370071796
 30
0.0
 40
3.0
 50
270.0
 51
360.0
  0
LINE
  8
CUT
  5
95C
 10
334.983056448816
 20
377.526370071796
 30
0.0
 11
334.983056448816
 21
376.026370071796
 31
0.0
  0
ARC
  8
CUT
  5
95D
 10
337.983056448816
 20
377.526370071796
 30
0.0
 40
3.0
 50
90.0
 51
180.0
  0
LINE
  8
CUT
  5
95E
 10
337.983056448816
 20
373.026370071796
 30
0.0
 11
369.483056448816
 21
373.026370071796
 31
0.0
  0
ARC
  8
CUT
  5
95F
 10
369.483056448816
 20
376.026370071796
 30
0.0
 40
3.0
 50
270.0
 51
360.0
  0
ARC
  8
CUT
  5
960
 10
337.983056448816
 20
376.026370071796
 30
0.0
 40
3.0
 50
180.0
 51
270.0
  0
LINE
  8
CUT
  5
961
 10
372.483056448816
 20
376.026370071796
 30
0.0
 11
372.483056448816
 21
377.526370071796
 31
0.0
  0
LINE
  8
CUT
  5
962
 10
369.483056448816
 20
380.526370071796
 30
0.0
 11
367.983056448816
 21
380.526370071796
 31
0.0
  0
ARC
  8
CUT
  5
963
 10
369.483056448816
 20
377.526370071796
 30
0.0
 40
3.0
 50
0.0
 51
90.0
  0
LINE
  8
CUT
  5
964
 10
364.983056448816
 20
383.526370071796
 30
0.0
 11
364.983056448816
 21
385.026370071796
 31
0.0
  0
ARC
  8
CUT
  5
965
 10
367.983056448816
 20
383.526370071796
 30
0.0
 40
3.0
 50
180.0
 51
270.0
  0
LINE
  8
CUT
  5
966
 10
367.983056448816
 20
388.026370071796
 30
0.0
 11
406.983056448816
 21
388.026370071796
 31
0.0
  0
ARC
  8
CUT
  5
967
 10
367.983056448816
 20
385.026370071796
 30
0.0
 40
3.0
 50
90.0
 51
180.0
  0
LINE
  8
CUT
  5
968
 10
409.983056448816
 20
385.026370071796
 30
0.0
 11
409.983056448816
 21
383.526370071796
 31
0.0
  0
ARC
  8
CUT
  5
969
 10
406.983056448816
 20
385.026370071796
 30
0.0
 40
3.0
 50
0.0
 51
90.0
  0
LINE
  8
CUT
  5
96A
 10
406.983056448816
 20
380.526370071796
 30
0.0
 11
405.483056448816
 21
380.526370071796
 31
0.0
  0
ARC
  8
CUT
  5
96B
 10
406.983056448816
 20
383.526370071796
 30
0.0
 40
3.0
 50
270.0
 51
360.0
  0
LINE
  8
CUT
  5
96C
 10
402.483056448816
 20
377.526370071796
 30
0.0
 11
402.483056448816
 21
376.026370071796
 31
0.0
  0
ARC
  8
CUT
  5
96D
 10
405.483056448816
 20
377.526370071796
 30
0.0
 40
3.0
 50
90.0
 51
180.0
  0
LINE
  8
CUT
  5
96E
 10
405.483056448816
 20
373.026370071796
 30
0.0
 11
436.983056448816
 21
373.026370071796
 31
0.0
  0
ARC
  8
CUT
  5
96F
 10
405.483056448816
 20
376.026370071796
 30
0.0
 40
3.0
 50
180.0
 51
270.0
  0
LINE
  8
CUT
  5
970
 10
439.983056448816
 20
376.026370071796
 30
0.0
 11
439.983056448816
 21
377.526370071796
 31
0.0
  0
ARC
  8
CUT
  5
971
 10
436.983056448816
 20
376.026370071796
 30
0.0
 40
3.0
 50
270.0
 51
360.0
  0
LINE
  8
CUT
  5
972
 10
436.983056448816
 20
380.526370071796
 30
0.0
 11
435.483056448816
 21
380.526370071796
 31
0.0
  0
ARC
  8
CUT
  5
973
 10
435.483056448816
 20
383.526370071796
 30
0.0
 40
3.0
 50
180.0
 51
270.0
  0
ARC
  8
CUT
  5
974
 10
436.983056448816
 20
377.526370071796
 30
0.0
 40
3.0
 50
0.0
 51
90.0
  0
LINE
  8
CUT
  5
975
 10
432.483056448816
 20
383.526370071796
 30
0.0
 11
432.483056448816
 21
385.026370071796
 31
0.0
  0
LINE
  8
CUT
  5
976
 10
435.483056448816
 20
388.026370071796
 30
0.0
 11
474.483056448816
 21
388.026370071796
 31
0.0
  0
ARC
  8
CUT
  5
977
 10
474.483056448816
 20
385.026370071796
 30
0.0
 40
3.0
 50
0.0
 51
90.0
  0
ARC
  8
CUT
  5
978
 10
435.483056448816
 20
385.026370071796
 30
0.0
 40
3.0
 50
90.0
 51
180.0
  0
LINE
  8
CUT
  5
979
 10
477.483056448816
 20
385.026370071796
 30
0.0
 11
477.483056448816
 21
383.526370071796
 31
0.0
  0
LINE
  8
CUT
  5
97A
 10
474.483056448816
 20
380.526370071796
 30
0.0
 11
472.983056448816
 21
380.526370071796
 31
0.0
  0
ARC
  8
CUT
  5
97B
 10
474.483056448816
 20
383.526370071796
 30
0.0
 40
3.0
 50
270.0
 51
360.0
  0
LINE
  8
CUT
  5
97C
 10
469.983056448816
 20
377.526370071796
 30
0.0
 11
469.983056448816
 21
376.026370071796
 31
0.0
  0
ARC
  8
CUT
  5
97D
 10
472.983056448816
 20
377.526370071796
 30
0.0
 40
3.0
 50
90.0
 51
180.0
  0
LINE
  8
CUT
  5
97E
 10
472.983056448816
 20
373.026370071796
 30
0.0
 11
504.483056448816
 21
373.026370071796
 31
0.0
  0
ARC
  8
CUT
  5
97F
 10
472.983056448816
 20
376.026370071796
 30
0.0
 40
3.0
 50
180.0
 51
270.0
  0
LINE
  8
CUT
  5
980
 10
507.483056448816
 20
376.026370071796
 30
0.0
 11
507.483056448816
 21
377.526370071796
 31
0.0
  0
ARC
  8
CUT
  5
981
 10
504.483056448816
 20
376.026370071796
 30
0.0
 40
3.0
 50
270.0
 51
360.0
  0
LINE
  8
CUT
  5
982
 10
504.483056448816
 20
380.526370071796
 30
0.0
 11
502.983056448816
 21
380.526370071796
 31
0.0
  0
ARC
  8
CUT
  5
983
 10
504.483056448816
 20
377.526370071796
 30
0.0
 40
3.0
 50
0.0
 51
90.0
  0
LINE
  8
CUT
  5
984
 10
499.983056448816
 20
383.526370071796
 30
0.0
 11
499.983056448816
 21
385.026370071796
 31
0.0
  0
ARC
  8
CUT
  5
985
 10
502.983056448816
 20
383.526370071796
 30
0.0
 40
3.0
 50
180.0
 51
270.0
  0
LINE
  8
CUT
  5
986
 10
502.983056448816
 20
388.026370071796
 30
0.0
 11
541.983056448816
 21
388.026370071796
 31
0.0
  0
ARC
  8
CUT
  5
987
 10
502.983056448816
 20
385.026370071796
 30
0.0
 40
3.0
 50
90.0
 51
180.0
  0
LINE
  8
CUT
  5
988
 10
544.983056448816
 20
385.026370071796
 30
0.0
 11
544.983056448816
 21
383.526370071796
 31
0.0
  0
ARC
  8
CUT
  5
989
 10
541.983056448816
 20
385.026370071796
 30
0.0
 40
3.0
 50
0.0
 51
90.0
  0
LINE
  8
CUT
  5
98A
 10
541.983056448816
 20
380.526370071796
 30
0.0
 11
540.483056448816
 21
380.526370071796
 31
0.0
  0
ARC
  8
CUT
  5
98B
 10
541.983056448816
 20
383.526370071796
 30
0.0
 40
3.0
 50
270.0
 51
360.0
  0
LINE
  8
CUT
  5
98C
 10
537.483056448816
 20
377.526370071796
 30
0.0
 11
537.483056448816
 21
376.026370071796
 31
0.0
  0
ARC
  8
CUT
  5
98D
 10
540.483056448816
 20
376.026370071796
 30
0.0
 40
3.0
 50
180.0
 51
270.0
  0
ARC
  8
CUT
  5
98E
 10
540.483056448816
 20
377.526370071796
 30
0.0
 40
3.0
 50
90.0
 51
180.0
  0
LINE
  8
CUT
  5
98F
 10
540.483056448816
 20
373.026370071796
 30
0.0
 11
551.544660637335
 21
373.026370071796
 31
0.0
  0
LINE
  8
CUT
  5
990
 10
551.544660637335
 20
373.026370071796
 30
0.0
 11
551.544660637335
 21
0.000000220211
 31
0.0
  0
LINE
  8
CUT
  5
991
 10
291.343493493976
 20
373.026370071796
 30
0.0
 11
301.983056448816
 21
373.026370071796
 31
0.0
  0
LINE
  8
CUT
  5
992
 10
304.983056448816
 20
376.026370071796
 30
0.0
 11
304.983056448816
 21
377.526370071796
 31
0.0
  0
ARC
  8
CUT
  5
993
 10
301.983056448816
 20
376.026370071796
 30
0.0
 40
3.0
 50
270.0
 51
360.0
  0
ARC
  8
CUT
  5
994
 10
301.983056448816
 20
377.526370071796
 30
0.0
 40
3.0
 50
0.0
 51
90.0
  0
LINE
  8
CUT
  5
995
 10
301.983056448816
 20
380.526370071796
 30
0.0
 11
300.483056448816
 21
380.526370071796
 31
0.0
  0
LINE
  8
CUT
  5
996
 10
297.483056448816
 20
383.526370071796
 30
0.0
 11
297.483056448816
 21
385.026370071796
 31
0.0
  0
ARC
  8
CUT
  5
997
 10
300.483056448816
 20
383.526370071796
 30
0.0
 40
3.0
 50
180.0
 51
270.0
  0
ARC
  8
CUT
  5
998
 10
300.483056448816
 20
385.026370071796
 30
0.0
 40
3.0
 50
90.0
 51
180.0
  0
LINE
  8
CUT
  5
999
 10
300.483056448816
 20
388.026370071796
 30
0.0
 11
339.483056448816
 21
388.026370071796
 31
0.0
  0
LINE
  8
CUT
  5
99A
 10
342.483056448816
 20
385.026370071796
 30
0.0
 11
342.483056448816
 21
383.526370071796
 31
0.0
  0
ARC
  8
CUT
  5
99B
 10
339.483056448816
 20
385.026370071796
 30
0.0
 40
3.0
 50
0.0
 51
90.0
  0
LINE
  8
CUT
  5
99C
 10
339.483056448816
 20
380.526370071796
 30
0.0
 11
337.983056448816
 21
380.526370071796
 31
0.0
  0
ARC
  8
CUT
  5
99D
 10
339.483056448816
 20
383.526370071796
 30
0.0
 40
3.0
 50
270.0
 51
360.0
  0
LINE
  8
CUT
  5
99E
 10
334.983056448816
 20
377.526370071796
 30
0.0
 11
334.983056448816
 21
376.026370071796
 31
0.0
  0
ARC
  8
CUT
  5
99F
 10
337.983056448816
 20
377.526370071796
 30
0.0
 40
3.0
 50
90.0
 51
180.0
  0
LINE
  8
CUT
  5
9A0
 10
337.983056448816
 20
373.026370071796
 30
0.0
 11
369.483056448816
 21
373.026370071796
 31
0.0
  0
ARC
  8
CUT
  5
9A1
 10
369.483056448816
 20
376.026370071796
 30
0.0
 40
3.0
 50
270.0
 51
360.0
  0
ARC
  8
CUT
  5
9A2
 10
337.983056448816
 20
376.026370071796
 30
0.0
 40
3.0
 50
180.0
 51
270.0
  0
LINE
  8
CUT
  5
9A3
 10
372.483056448816
 20
376.026370071796
 30
0.0
 11
372.483056448816
 21
377.526370071796
 31
0.0
  0
LINE
  8
CUT
  5
9A4
 10
369.483056448816
 20
380.526370071796
 30
0.0
 11
367.983056448816
 21
380.526370071796
 31
0.0
  0
ARC
  8
CUT
  5
9A5
 10
369.483056448816
 20
377.526370071796
 30
0.0
 40
3.0
 50
0.0
 51
90.0
  0
LINE
  8
CUT
  5
9A6
 10
364.983056448816
 20
383.526370071796
 30
0.0
 11
364.983056448816
 21
385.026370071796
 31
0.0
  0
ARC
  8
CUT
  5
9A7
 10
367.983056448816
 20
383.526370071796
 30
0.0
 40
3.0
 50
180.0
 51
270.0
  0
LINE
  8
CUT
  5
9A8
 10
367.983056448816
 20
388.026370071796
 30
0.0
 11
406.983056448816
 21
388.026370071796
 31
0.0
  0
ARC
  8
CUT
  5
9A9
 10
367.983056448816
 20
385.026370071796
 30
0.0
 40
3.0
 50
90.0
 51
180.0
  0
LINE
  8
CUT
  5
9AA
 10
409.983056448816
 20
385.026370071796
 30
0.0
 11
409.983056448816
 21
383.526370071796
 31
0.0
  0
ARC
  8
CUT
  5
9AB
 10
406.983056448816
 20
385.026370071796
 30
0.0
 40
3.0
 50
0.0
 51
90.0
  0
LINE
  8
CUT
  5
9AC
 10
406.983056448816
 20
380.526370071796
 30
0.0
 11
405.483056448816
 21
380.526370071796
 31
0.0
  0
ARC
  8
CUT
  5
9AD
 10
406.983056448816
 20
383.526370071796
 30
0.0
 40
3.0
 50
270.0
 51
360.0
  0
LINE
  8
CUT
  5
9AE
 10
402.483056448816
 20
377.526370071796
 30
0.0
 11
402.483056448816
 21
376.026370071796
 31
0.0
  0
ARC
  8
CUT
  5
9AF
 10
405.483056448816
 20
377.526370071796
 30
0.0
 40
3.0
 50
90.0
 51
180.0
  0
LINE
  8
CUT
  5
9B0
 10
405.483056448816
 20
373.026370071796
 30
0.0
 11
436.983056448816
 21
373.026370071796
 31
0.0
  0
ARC
  8
CUT
  5
9B1
 10
405.483056448816
 20
376.026370071796
 30
0.0
 40
3.0
 50
180.0
 51
270.0
  0
LINE
  8
CUT
  5
9B2
 10
439.983056448816
 20
376.026370071796
 30
0.0
 11
439.983056448816
 21
377.526370071796
 31
0.0
  0
ARC
  8
CUT
  5
9B3
 10
436.983056448816
 20
376.026370071796
 30
0.0
 40
3.0
 50
270.0
 51
360.0
  0
LINE
  8
CUT
  5
9B4
 10
436.983056448816
 20
380.526370071796
 30
0.0
 11
435.483056448816
 21
380.526370071796
 31
0.0
  0
ARC
  8
CUT
  5
9B5
 10
435.483056448816
 20
383.526370071796
 30
0.0
 40
3.0
 50
180.0
 51
270.0
  0
ARC
  8
CUT
  5
9B6
 10
436.983056448816
 20
377.526370071796
 30
0.0
 40
3.0
 50
0.0
 51
90.0
  0
LINE
  8
CUT
  5
9B7
 10
432.483056448816
 20
383.526370071796
 30
0.0
 11
432.483056448816
 21
385.026370071796
 31
0.0
  0
LINE
  8
CUT
  5
9B8
 10
435.483056448816
 20
388.026370071796
 30
0.0
 11
474.483056448816
 21
388.026370071796
 31
0.0
  0
ARC
  8
CUT
  5
9B9
 10
474.483056448816
 20
385.026370071796
 30
0.0
 40
3.0
 50
0.0
 51
90.0
  0
ARC
  8
CUT
  5
9BA
 10
435.483056448816
 20
385.026370071796
 30
0.0
 40
3.0
 50
90.0
 51
180.0
  0
LINE
  8
CUT
  5
9BB
 10
477.483056448816
 20
385.026370071796
 30
0.0
 11
477.483056448816
 21
383.526370071796
 31
0.0
  0
LINE
  8
CUT
  5
9BC
 10
474.483056448816
 20
380.526370071796
 30
0.0
 11
472.983056448816
 21
380.526370071796
 31
0.0
  0
ARC
  8
CUT
  5
9BD
 10
474.483056448816
 20
383.526370071796
 30
0.0
 40
3.0
 50
270.0
 51
360.0
  0
LINE
  8
CUT
  5
9BE
 10
469.983056448816
 20
377.526370071796
 30
0.0
 11
469.983056448816
 21
376.026370071796
 31
0.0
  0
ARC
  8
CUT
  5
9BF
 10
472.983056448816
 20
377.526370071796
 30
0.0
 40
3.0
 50
90.0
 51
180.0
  0
LINE
  8
CUT
  5
9C0
 10
472.983056448816
 20
373.026370071796
 30
0.0
 11
504.483056448816
 21
373.026370071796
 31
0.0
  0
ARC
  8
CUT
  5
9C1
 10
472.983056448816
 20
376.026370071796
 30
0.0
 40
3.0
 50
180.0
 51
270.0
  0
LINE
  8
CUT
  5
9C2
 10
507.483056448816
 20
376.026370071796
 30
0.0
 11
507.483056448816
 21
377.526370071796
 31
0.0
  0
ARC
  8
CUT
  5
9C3
 10
504.483056448816
 20
376.026370071796
 30
0.0
 40
3.0
 50
270.0
 51
360.0
  0
LINE
  8
CUT
  5
9C4
 10
504.483056448816
 20
380.526370071796
 30
0.0
 11
502.983056448816
 21
380.526370071796
 31
0.0
  0
ARC
  8
CUT
  5
9C5
 10
504.483056448816
 20
377.526370071796
 30
0.0
 40
3.0
 50
0.0
 51
90.0
  0
LINE
  8
CUT
  5
9C6
 10
499.983056448816
 20
383.526370071796
 30
0.0
 11
499.983056448816
 21
385.026370071796
 31
0.0
  0
ARC
  8
CUT
  5
9C7
 10
502.983056448816
 20
383.526370071796
 30
0.0
 40
3.0
 50
180.0
 51
270.0
  0
LINE
  8
CUT
  5
9C8
 10
502.983056448816
 20
388.026370071796
 30
0.0
 11
541.983056448816
 21
388.026370071796
 31
0.0
  0
ARC
  8
CUT
  5
9C9
 10
502.983056448816
 20
385.026370071796
 30
0.0
 40
3.0
 50
90.0
 51
180.0
  0
LINE
  8
CUT
  5
9CA
 10
544.983056448816
 20
385.026370071796
 30
0.0
 11
544.983056448816
 21
383.526370071796
 31
0.0
  0
ARC
  8
CUT
  5
9CB
 10
541.983056448816
 20
385.026370071796
 30
0.0
 40
3.0
 50
0.0
 51
90.0
  0
LINE
  8
CUT
  5
9CC
 10
541.983056448816
 20
380.526370071796
 30
0.0
 11
540.483056448816
 21
380.526370071796
 31
0.0
  0
ARC
  8
CUT
  5
9CD
 10
541.983056448816
 20
383.526370071796
 30
0.0
 40
3.0
 50
270.0
 51
360.0
  0
LINE
  8
CUT
  5
9CE
 10
537.483056448816
 20
377.526370071796
 30
0.0
 11
537.483056448816
 21
376.026370071796
 31
0.0
  0
ARC
  8
CUT
  5
9CF
 10
540.483056448816
 20
376.026370071796
 30
0.0
 40
3.0
 50
180.0
 51
270.0
  0
ARC
  8
CUT
  5
9D0
 10
540.483056448816
 20
377.526370071796
 30
0.0
 40
3.0
 50
90.0
 51
180.0
  0
LINE
  8
CUT
  5
9D1
 10
540.483056448816
 20
373.026370071796
 30
0.0
 11
551.544660637335
 21
373.026370071796
 31
0.0
  0
ARC
  8
CUT
  5
9D2
 10
-245.358130295858
 20
191.371179176257
 30
0.0
 40
536.226859637134
 50
355.917719948912
 51
4.082280051088
  0
ARC
  8
CUT
  5
9D3
 10
-244.88331378877
 20
372.789415105213
 30
0.0
 40
536.226859637134
 50
355.917719948912
 51
0.025318612297
  0
ARC
  8
CUT
  5
9D4
 10
-245.888475302163
 20
9.525684193755
 30
0.0
 40
536.226859637134
 50
358.982128201393
 51
4.082280051088
  0
LINE
  8
SCORE
  5
9D5
 10
354.561688708937
 20
145.879119052612
 30
0.0
 11
354.5425427629
 21
54.74786312048
 31
0.0
  0
LINE
  8
SCORE
  5
9D6
 10
354.561688708937
 20
145.879119052612
 30
0.0
 11
401.158519819014
 21
120.447696773216
 31
0.0
  0
LINE
  8
CUT
  5
9D7
 10
400.671692159774
 20
121.198142921422
 30
0.0
 11
391.33210020852
 21
172.989023001665
 31
0.0
  0
LINE
  8
SCORE
  5
9D8
 10
391.33210020852
 20
172.989023001665
 30
0.0
 11
354.561688708937
 21
145.879119052612
 31
0.0
  0
ARC
  8
CUT
  5
9D9
 10
403.497061355515
 20
100.331707517571
 30
0.0
 40
19.424382877131
 50
266.524795896281
 51
93.065955084676
  0
ARC
  8
CUT
  5
9DA
 10
410.433205909285
 20
100.433418149948
 30
0.0
 40
17.853539050646
 50
123.144683654872
 51
236.148013142578
  0
LINE
  8
CUT
  5
9DB
 10
397.452491787739
 20
172.628414306215
 30
0.0
 11
409.801603765048
 21
164.80385075001
 31
0.0
  0
ARC
  8
CUT
  5
9DC
 10
405.749933504217
 20
155.661423933376
 30
0.0
 40
10.0
 50
11.745833411727
 51
66.098405723393
  0
LINE
  8
CUT
  5
9DD
 10
415.54053629285
 20
157.69712947083
 30
0.0
 11
425.347738180663
 21
110.529984525291
 31
0.0
  0
LINE
  8
SCORE
  5
9DE
 10
354.5425427629
 20
54.74786312048
 30
0.0
 11
400.487903168593
 21
79.551122100402
 31
0.0
  0
LINE
  8
CUT
  5
9DF
 10
400.303313719625
 20
78.998988646955
 30
0.0
 11
390.637183653951
 21
27.767393818141
 31
0.0
  0
LINE
  8
SCORE
  5
9E0
 10
390.637183653951
 20
27.767393818141
 30
0.0
 11
354.5425427629
 21
54.74786312048
 31
0.0
  0
LINE
  8
CUT
  5
9E1
 10
414.993634570057
 20
42.821403927659
 30
0.0
 11
425.240007827976
 21
89.667905416985
 31
0.0
  0
ARC
  8
CUT
  5
9E2
 10
376.3947242375
 20
100.351456838023
 30
0.0
 40
50.0
 50
347.662428858051
 51
11.745833411727
  0
ARC
  8
CUT
  5
9E3
 10
404.26135858947
 20
100.435976110058
 30
0.0
 40
15.0
 50
265.140331097832
 51
94.859668902168
  0
ARC
  8
CUT
  5
9E4
 10
394.027087884438
 20
166.610263952473
 30
0.0
 40
6.924704006743
 50
60.352383252619
 51
112.903768006149
  0
LINE
  8
CUT
  5
9E5
 10
396.75757523317
 20
28.12800251359
 30
0.0
 11
409.106687210479
 21
35.952566069796
 31
0.0
  0
ARC
  8
CUT
  5
9E6
 10
404.412040259737
 20
45.933247264413
 30
0.0
 40
11.029673934469
 50
295.191045357731
 51
343.612404688888
  0
ARC
  8
CUT
  5
9E7
 10
393.332171329869
 20
34.146152867333
 30
0.0
 40
6.924704006743
 50
247.096231993851
 51
299.647616747381
  0
LINE
  8
CUT
  5
9E8
 10
402.990625126925
 20
115.382053738224
 30
0.0
 11
400.671692159774
 21
115.382053738224
 31
0.0
  0
LINE
  8
CUT
  5
9E9
 10
402.990625126925
 20
85.489898481891
 30
0.0
 11
400.487903168593
 21
85.606422161922
 31
0.0
  0
LINE
  8
SCORE
  5
9EA
 10
400.671692159774
 20
121.198142921422
 30
0.0
 11
400.671692159774
 21
115.382053738224
 31
0.0
  0
LINE
  8
SCORE
  5
9EB
 10
400.487903168593
 20
79.551122100402
 30
0.0
 11
400.487903168593
 21
85.752058572742
 31
0.0
  0
ARC
  8
CUT
  5
9EC
 10
402.957324876809
 20
122.163660390412
 30
0.0
 40
2.486006993451
 50
188.883274590574
 51
258.416356353128
  0
ARC
  8
CUT
  5
9ED
 10
402.737312934176
 20
78.49217591081
 30
0.0
 40
2.486204200373
 50
99.671611472654
 51
168.237812340391
  0
LINE
  8
SCORE
  5
9EE
 10
295.67552906849
 20
328.04415882999
 30
0.0
 11
354.561638375839
 21
328.04415882999
 31
0.0
  0
LINE
  8
SCORE
  5
9EF
 10
354.561638375839
 20
328.306039109528
 30
0.0
 11
354.542492429802
 21
237.174783177396
 31
0.0
  0
LINE
  8
SCORE
  5
9F0
 10
354.561638375839
 20
328.306039109528
 30
0.0
 11
401.158469485916
 21
302.874616830132
 31
0.0
  0
LINE
  8
CUT
  5
9F1
 10
400.671641826676
 20
303.625062978338
 30
0.0
 11
391.332049875422
 21
355.41594305858
 31
0.0
  0
LINE
  8
SCORE
  5
9F2
 10
391.332049875422
 20
355.41594305858
 30
0.0
 11
354.561638375839
 21
328.306039109528
 31
0.0
  0
ARC
  8
CUT
  5
9F3
 10
403.497011022418
 20
282.758627574487
 30
0.0
 40
19.424382877131
 50
266.524795896281
 51
93.065955084676
  0
ARC
  8
CUT
  5
9F4
 10
410.433155576187
 20
282.860338206864
 30
0.0
 40
17.853539050646
 50
123.144683654872
 51
236.148013142578
  0
LINE
  8
CUT
  5
9F5
 10
397.452441454641
 20
355.055334363131
 30
0.0
 11
409.80155343195
 21
347.230770806925
 31
0.0
  0
ARC
  8
CUT
  5
9F6
 10
405.749883171119
 20
338.088343990292
 30
0.0
 40
10.0
 50
11.745833411727
 51
66.098405723393
  0
LINE
  8
CUT
  5
9F7
 10
415.540485959752
 20
340.124049527746
 30
0.0
 11
425.347687847565
 21
292.956904582207
 31
0.0
  0
LINE
  8
SCORE
  5
9F8
 10
354.542492429802
 20
237.174783177396
 30
0.0
 11
400.487852835495
 21
261.978042157318
 31
0.0
  0
LINE
  8
CUT
  5
9F9
 10
400.303263386527
 20
261.425908703871
 30
0.0
 11
390.637133320853
 21
210.194313875057
 31
0.0
  0
LINE
  8
SCORE
  5
9FA
 10
390.637133320853
 20
210.194313875057
 30
0.0
 11
354.542492429802
 21
237.174783177396
 31
0.0
  0
LINE
  8
CUT
  5
9FB
 10
414.993584236959
 20
225.248323984575
 30
0.0
 11
425.239957494878
 21
272.094825473901
 31
0.0
  0
ARC
  8
CUT
  5
9FC
 10
376.394673904402
 20
282.778376894939
 30
0.0
 40
50.0
 50
347.662428858051
 51
11.745833411727
  0
ARC
  8
CUT
  5
9FD
 10
404.261308256372
 20
282.862896166974
 30
0.0
 40
15.0
 50
265.140331097832
 51
94.859668902168
  0
ARC
  8
CUT
  5
9FE
 10
394.02703755134
 20
349.037184009389
 30
0.0
 40
6.924704006743
 50
60.352383252619
 51
112.903768006149
  0
LINE
  8
CUT
  5
9FF
 10
396.757524900072
 20
210.554922570506
 30
0.0
 11
409.106636877381
 21
218.379486126712
 31
0.0
  0
ARC
  8
CUT
  5
A00
 10
404.411989926639
 20
228.360167321329
 30
0.0
 40
11.029673934469
 50
295.191045357731
 51
343.612404688888
  0
ARC
  8
CUT
  5
A01
 10
393.332120996771
 20
216.573072924248
 30
0.0
 40
6.924704006743
 50
247.096231993851
 51
299.647616747381
  0
LINE
  8
CUT
  5
A02
 10
402.990574793827
 20
297.80897379514
 30
0.0
 11
400.671641826676
 21
297.80897379514
 31
0.0
  0
LINE
  8
CUT
  5
A03
 10
402.990574793827
 20
267.916818538807
 30
0.0
 11
400.487852835495
 21
268.033342218838
 31
0.0
  0
LINE
  8
SCORE
  5
A04
 10
400.671641826676
 20
303.625062978338
 30
0.0
 11
400.671641826676
 21
297.80897379514
 31
0.0
  0
LINE
  8
SCORE
  5
A05
 10
400.487852835495
 20
261.978042157318
 30
0.0
 11
400.487852835495
 21
268.178978629658
 31
0.0
  0
ARC
  8
CUT
  5
A06
 10
402.957274543711
 20
304.590580447328
 30
0.0
 40
2.486006993451
 50
188.883274590574
 51
258.416356353128
  0
ARC
  8
CUT
  5
A07
 10
402.737262601078
 20
260.919095967726
 30
0.0
 40
2.486204200373
 50
99.671611472654
 51
168.237812340391
  0
ARC
  8
CUT
  5
A08
 10
649.065009828212
 20
100.23878768107
 30
0.0
 40
362.049657072405
 50
173.947654901559
 51
186.052345098441
  0
ARC
  8
CUT
  5
A09
 10
650.014642842389
 20
282.503570671446
 30
0.0
 40
362.049657072405
 50
173.947654901559
 51
186.052345098441
  0
ARC
  8
CUT
  5
A0A
 10
361.968863354126
 20
100.23878768107
 30
0.0
 40
362.049657072405
 50
173.947654901559
 51
186.052345098441
  0
ARC
  8
CUT
  5
A0B
 10
362.918495833338
 20
282.503571173216
 30
0.0
 40
362.049657072405
 50
173.947654901559
 51
186.052345098441
  0
ENDBLK
  8
0
  5
A0D
  0
BLOCK
  8
0
  5
AD7
  2
A$C64E50273
 70
          64
 10
0.0
 20
0.0
 30
0.0
  3
A$C64E50273
  0
CIRCLE
  8
CUT
  5
A10
 10
386.330476087946
 20
223.241723454103
 30
0.0
 40
15.0
  0
ARC
  8
SCORE
  5
A11
 10
386.500344784213
 20
223.340895412555
 30
0.0
 40
47.815365053745
 50
10.065494279214
 51
34.207770529187
  0
ARC
  8
CUT
  5
A12
 10
349.099758859222
 20
191.384641123249
 30
0.0
 40
1.0
 50
40.552500257406
 51
202.171311143297
  0
ARC
  8
CUT
  5
A13
 10
349.099758859222
 20
191.384641123249
 30
0.0
 40
1.0
 50
40.552500257399
 51
202.171311143297
  0
ARC
  8
CUT
  5
A14
 10
337.437645002733
 20
220.00273156266
 30
0.0
 40
1.0
 50
202.171311143297
 51
3.790122029201
  0
ARC
  8
CUT
  5
A15
 10
167.032462429277
 20
138.16135327071
 30
0.0
 40
47.084992853223
 50
35.89149991826
 51
193.945568260287
  0
ARC
  8
CUT
  5
A16
 10
120.348395008013
 20
126.652532310523
 30
0.0
 40
1.0
 50
297.443648582389
 51
9.284567921117
  0
ARC
  8
CUT
  5
A17
 10
217.599287240092
 20
137.797086934366
 30
0.0
 40
1.0
 50
22.171311143297
 51
183.790122029201
  0
ARC
  8
CUT
  5
A18
 10
205.937173383604
 20
166.415177373777
 30
0.0
 40
1.0
 50
220.552500257399
 51
22.171311143297
  0
LINE
  8
CUT
  5
A19
 10
165.121373304215
 20
143.355661806175
 30
0.0
 11
166.973492622794
 21
144.110416090526
 31
0.0
  0
LINE
  8
CUT
  5
A1A
 10
166.973492622794
 20
144.110416090526
 30
0.0
 11
163.916737771175
 21
151.611499330772
 31
0.0
  0
LINE
  8
CUT
  5
A1B
 10
163.916737771175
 20
151.611499330772
 30
0.0
 11
162.064618452595
 21
150.856745046421
 31
0.0
  0
LINE
  8
CUT
  5
A1C
 10
184.501619951249
 20
132.895927588705
 30
0.0
 11
186.011128519949
 21
129.191688951546
 31
0.0
  0
LINE
  8
CUT
  5
A1D
 10
186.011128519949
 20
129.191688951546
 30
0.0
 11
179.991740734567
 21
126.738737527407
 31
0.0
  0
LINE
  8
CUT
  5
A1E
 10
179.991740734567
 20
126.738737527407
 30
0.0
 11
178.482232165866
 21
130.442976164566
 31
0.0
  0
LINE
  8
CUT
  5
A1F
 10
178.482232165866
 20
130.442976164566
 30
0.0
 11
184.501619951249
 21
132.895927588705
 31
0.0
  0
LINE
  8
CUT
  5
A20
 10
165.121373304215
 20
143.355661806175
 30
0.0
 11
163.269253985635
 21
142.600907521825
 31
0.0
  0
LINE
  8
CUT
  5
A21
 10
163.269253985635
 20
142.600907521825
 30
0.0
 11
160.212499134016
 21
150.101990762071
 31
0.0
  0
LINE
  8
CUT
  5
A22
 10
160.212499134016
 20
150.101990762071
 30
0.0
 11
162.064618452595
 21
150.856745046421
 31
0.0
  0
LINE
  8
CUT
  5
A23
 10
158.571949491138
 20
122.329367607798
 30
0.0
 11
160.081458059839
 21
118.625128970639
 31
0.0
  0
LINE
  8
CUT
  5
A24
 10
160.081458059839
 20
118.625128970639
 30
0.0
 11
166.100845845222
 21
121.078080394778
 31
0.0
  0
LINE
  8
CUT
  5
A25
 10
166.100845845222
 20
121.078080394778
 30
0.0
 11
164.591337276521
 21
124.782319031937
 31
0.0
  0
LINE
  8
CUT
  5
A26
 10
164.591337276521
 20
124.782319031937
 30
0.0
 11
158.571949491138
 21
122.329367607798
 31
0.0
  0
LINE
  8
CUT
  5
A27
 10
206.863233042893
 20
166.792554515952
 30
0.0
 11
151.125209225249
 21
303.570142709353
 31
0.0
  0
LINE
  8
CUT
  5
A28
 10
280.773561525799
 20
356.402942613885
 30
0.0
 11
336.511585343443
 21
219.625354420485
 31
0.0
  0
LINE
  8
CUT
  5
A29
 10
348.173699199932
 20
191.007263981074
 30
0.0
 11
401.270083022351
 21
60.712093402701
 31
0.0
  0
LINE
  8
CUT
  5
A2A
 10
271.6217307218
 20
7.879293498169
 30
0.0
 11
218.525346899382
 21
138.174464076542
 31
0.0
  0
LINE
  8
CUT
  5
A2B
 10
348.173699199932
 20
191.007263981074
 30
0.0
 11
349.890185115193
 21
186.795116014986
 31
0.0
  0
LINE
  8
CUT
  5
A2C
 10
151.125209225249
 20
303.570142709353
 30
0.0
 11
155.755507521697
 21
305.457028420229
 31
0.0
  0
LINE
  8
CUT
  5
A2D
 10
158.533686499566
 20
306.589159846755
 30
0.0
 11
174.557823796283
 21
313.119131299671
 31
0.0
  0
LINE
  8
CUT
  5
A2E
 10
178.468134200677
 20
311.473083748328
 30
0.0
 11
179.03419991394
 21
310.083994259393
 31
0.0
  0
ARC
  8
CUT
  5
A2F
 10
175.689955222809
 20
310.340952321802
 30
0.0
 40
3.0
 50
22.171311143297
 51
112.1713111433
  0
LINE
  8
CUT
  5
A30
 10
177.388152362597
 20
306.173683854998
 30
0.0
 11
175.999062873663
 21
305.607618141736
 31
0.0
  0
ARC
  8
CUT
  5
A31
 10
176.256020936071
 20
308.951862832867
 30
0.0
 40
3.0
 50
292.1713111433
 51
22.171311143297
  0
LINE
  8
CUT
  5
A32
 10
174.353015322319
 20
301.697307737341
 30
0.0
 11
174.919081035582
 21
300.308218248406
 31
0.0
  0
ARC
  8
CUT
  5
A33
 10
177.131194300188
 20
302.829439163867
 30
0.0
 40
3.0
 50
112.1713111433
 51
202.171311143297
  0
LINE
  8
CUT
  5
A34
 10
178.829391439977
 20
298.662170697063
 30
0.0
 11
208.000270707601
 21
310.549550675583
 31
0.0
  0
ARC
  8
CUT
  5
A35
 10
206.868139281075
 20
313.327729653452
 30
0.0
 40
3.0
 50
292.1713111433
 51
22.171311143297
  0
ARC
  8
CUT
  5
A36
 10
177.697260013451
 20
301.440349674932
 30
0.0
 40
3.0
 50
202.171311143297
 51
292.1713111433
  0
LINE
  8
CUT
  5
A37
 10
209.646318258944
 20
314.459861079977
 30
0.0
 11
209.080252545681
 21
315.848950568912
 31
0.0
  0
LINE
  8
CUT
  5
A38
 10
205.169942141286
 20
317.494998120255
 30
0.0
 11
203.780852652352
 21
316.928932406993
 31
0.0
  0
ARC
  8
CUT
  5
A39
 10
206.302073567812
 20
314.716819142386
 30
0.0
 40
3.0
 50
22.171311143297
 51
112.1713111433
  0
LINE
  8
CUT
  5
A3A
 10
199.870542247957
 20
318.574979958336
 30
0.0
 11
199.304476534694
 21
319.96406944727
 31
0.0
  0
ARC
  8
CUT
  5
A3B
 10
202.648721225826
 20
319.707111384861
 30
0.0
 40
3.0
 50
202.171311143297
 51
292.1713111433
  0
LINE
  8
CUT
  5
A3C
 10
200.950524086038
 20
323.874379851665
 30
0.0
 11
237.066850798334
 21
338.592088396499
 31
0.0
  0
ARC
  8
CUT
  5
A3D
 10
202.082655512563
 20
321.096200873796
 30
0.0
 40
3.0
 50
112.1713111433
 51
202.171311143297
  0
LINE
  8
CUT
  5
A3E
 10
240.977161202729
 20
336.946040845155
 30
0.0
 11
241.543226915992
 21
335.556951356221
 31
0.0
  0
ARC
  8
CUT
  5
A3F
 10
238.19898222486
 20
335.81390941863
 30
0.0
 40
3.0
 50
22.171311143297
 51
112.1713111433
  0
LINE
  8
CUT
  5
A40
 10
239.897179364648
 20
331.646640951826
 30
0.0
 11
238.508089875714
 21
331.080575238564
 31
0.0
  0
ARC
  8
CUT
  5
A41
 10
238.765047938123
 20
334.424819929695
 30
0.0
 40
3.0
 50
292.1713111433
 51
22.171311143297
  0
LINE
  8
CUT
  5
A42
 10
236.862042324371
 20
327.170264834169
 30
0.0
 11
237.428108037633
 21
325.781175345234
 31
0.0
  0
ARC
  8
CUT
  5
A43
 10
239.64022130224
 20
328.302396260694
 30
0.0
 40
3.0
 50
112.1713111433
 51
202.171311143297
  0
LINE
  8
CUT
  5
A44
 10
241.338418442028
 20
324.135127793891
 30
0.0
 11
270.509297709652
 21
336.022507772411
 31
0.0
  0
ARC
  8
CUT
  5
A45
 10
240.206287015502
 20
326.91330677176
 30
0.0
 40
3.0
 50
202.171311143297
 51
292.1713111433
  0
LINE
  8
CUT
  5
A46
 10
272.155345260995
 20
339.932818176806
 30
0.0
 11
271.589279547732
 21
341.32190766574
 31
0.0
  0
ARC
  8
CUT
  5
A47
 10
269.377166283126
 20
338.80068675028
 30
0.0
 40
3.0
 50
292.1713111433
 51
22.171311143297
  0
LINE
  8
CUT
  5
A48
 10
267.678969143338
 20
342.967955217083
 30
0.0
 11
266.289879654403
 21
342.40188950382
 31
0.0
  0
ARC
  8
CUT
  5
A49
 10
265.157748227878
 20
345.180068481689
 30
0.0
 40
3.0
 50
202.171311143297
 51
292.1713111433
  0
ARC
  8
CUT
  5
A4A
 10
268.811100569863
 20
340.189776239214
 30
0.0
 40
3.0
 50
22.171311143297
 51
112.1713111433
  0
LINE
  8
CUT
  5
A4B
 10
262.379569250009
 20
344.047937055164
 30
0.0
 11
261.813503536746
 21
345.437026544098
 31
0.0
  0
LINE
  8
CUT
  5
A4C
 10
263.459551088089
 20
349.347336948493
 30
0.0
 11
273.365084251482
 21
353.383925476483
 31
0.0
  0
LINE
  8
CUT
  5
A4D
 10
276.143263229351
 20
354.516056903009
 30
0.0
 11
280.773561525799
 21
356.402942613885
 31
0.0
  0
ARC
  8
CUT
  5
A4E
 10
264.591682514615
 20
346.569157970624
 30
0.0
 40
3.0
 50
112.1713111433
 51
202.171311143297
  0
LINE
  8
CUT
  5
A4F
 10
151.125209225249
 20
303.570142709353
 30
0.0
 11
155.755507521697
 21
305.457028420229
 31
0.0
  0
LINE
  8
CUT
  5
A50
 10
178.468134200677
 20
311.473083748328
 30
0.0
 11
179.03419991394
 21
310.083994259393
 31
0.0
  0
ARC
  8
CUT
  5
A51
 10
175.689955222809
 20
310.340952321802
 30
0.0
 40
3.0
 50
22.171311143297
 51
112.1713111433
  0
LINE
  8
CUT
  5
A52
 10
177.388152362597
 20
306.173683854998
 30
0.0
 11
175.999062873663
 21
305.607618141736
 31
0.0
  0
ARC
  8
CUT
  5
A53
 10
176.256020936071
 20
308.951862832867
 30
0.0
 40
3.0
 50
292.1713111433
 51
22.171311143297
  0
LINE
  8
CUT
  5
A54
 10
174.353015322319
 20
301.697307737341
 30
0.0
 11
174.919081035582
 21
300.308218248406
 31
0.0
  0
ARC
  8
CUT
  5
A55
 10
177.131194300188
 20
302.829439163867
 30
0.0
 40
3.0
 50
112.1713111433
 51
202.171311143297
  0
LINE
  8
CUT
  5
A56
 10
178.829391439977
 20
298.662170697063
 30
0.0
 11
208.000270707601
 21
310.549550675583
 31
0.0
  0
ARC
  8
CUT
  5
A57
 10
206.868139281075
 20
313.327729653452
 30
0.0
 40
3.0
 50
292.1713111433
 51
22.171311143297
  0
ARC
  8
CUT
  5
A58
 10
177.697260013451
 20
301.440349674932
 30
0.0
 40
3.0
 50
202.171311143297
 51
292.1713111433
  0
LINE
  8
CUT
  5
A59
 10
209.646318258944
 20
314.459861079977
 30
0.0
 11
209.080252545681
 21
315.848950568912
 31
0.0
  0
LINE
  8
CUT
  5
A5A
 10
205.169942141286
 20
317.494998120255
 30
0.0
 11
203.780852652352
 21
316.928932406993
 31
0.0
  0
ARC
  8
CUT
  5
A5B
 10
206.302073567812
 20
314.716819142386
 30
0.0
 40
3.0
 50
22.171311143297
 51
112.1713111433
  0
LINE
  8
CUT
  5
A5C
 10
199.870542247957
 20
318.574979958336
 30
0.0
 11
199.304476534694
 21
319.96406944727
 31
0.0
  0
ARC
  8
CUT
  5
A5D
 10
202.648721225826
 20
319.707111384861
 30
0.0
 40
3.0
 50
202.171311143297
 51
292.1713111433
  0
LINE
  8
CUT
  5
A5E
 10
200.950524086038
 20
323.874379851665
 30
0.0
 11
237.066850798334
 21
338.592088396499
 31
0.0
  0
ARC
  8
CUT
  5
A5F
 10
202.082655512563
 20
321.096200873796
 30
0.0
 40
3.0
 50
112.1713111433
 51
202.171311143297
  0
LINE
  8
CUT
  5
A60
 10
240.977161202729
 20
336.946040845155
 30
0.0
 11
241.543226915992
 21
335.556951356221
 31
0.0
  0
ARC
  8
CUT
  5
A61
 10
238.19898222486
 20
335.81390941863
 30
0.0
 40
3.0
 50
22.171311143297
 51
112.1713111433
  0
LINE
  8
CUT
  5
A62
 10
239.897179364648
 20
331.646640951826
 30
0.0
 11
238.508089875714
 21
331.080575238564
 31
0.0
  0
ARC
  8
CUT
  5
A63
 10
238.765047938123
 20
334.424819929695
 30
0.0
 40
3.0
 50
292.1713111433
 51
22.171311143297
  0
LINE
  8
CUT
  5
A64
 10
236.862042324371
 20
327.170264834169
 30
0.0
 11
237.428108037633
 21
325.781175345234
 31
0.0
  0
ARC
  8
CUT
  5
A65
 10
239.64022130224
 20
328.302396260694
 30
0.0
 40
3.0
 50
112.1713111433
 51
202.171311143297
  0
LINE
  8
CUT
  5
A66
 10
241.338418442028
 20
324.135127793891
 30
0.0
 11
270.509297709652
 21
336.022507772411
 31
0.0
  0
ARC
  8
CUT
  5
A67
 10
240.206287015502
 20
326.91330677176
 30
0.0
 40
3.0
 50
202.171311143297
 51
292.1713111433
  0
LINE
  8
CUT
  5
A68
 10
272.155345260995
 20
339.932818176806
 30
0.0
 11
271.589279547732
 21
341.32190766574
 31
0.0
  0
ARC
  8
CUT
  5
A69
 10
269.377166283126
 20
338.80068675028
 30
0.0
 40
3.0
 50
292.1713111433
 51
22.171311143297
  0
LINE
  8
CUT
  5
A6A
 10
267.678969143338
 20
342.967955217083
 30
0.0
 11
266.289879654403
 21
342.40188950382
 31
0.0
  0
ARC
  8
CUT
  5
A6B
 10
265.157748227878
 20
345.180068481689
 30
0.0
 40
3.0
 50
202.171311143297
 51
292.1713111433
  0
ARC
  8
CUT
  5
A6C
 10
268.811100569863
 20
340.189776239214
 30
0.0
 40
3.0
 50
22.171311143297
 51
112.1713111433
  0
LINE
  8
CUT
  5
A6D
 10
262.379569250009
 20
344.047937055164
 30
0.0
 11
261.813503536746
 21
345.437026544098
 31
0.0
  0
LINE
  8
CUT
  5
A6E
 10
276.143263229351
 20
354.516056903009
 30
0.0
 11
280.773561525799
 21
356.402942613885
 31
0.0
  0
ARC
  8
CUT
  5
A6F
 10
264.591682514615
 20
346.569157970624
 30
0.0
 40
3.0
 50
112.1713111433
 51
202.171311143297
  0
LINE
  8
CUT
  5
A70
 10
271.6217307218
 20
7.879293498169
 30
0.0
 11
276.252029018248
 21
9.766179209045
 31
0.0
  0
LINE
  8
CUT
  5
A71
 10
279.030207996117
 20
10.898310635571
 30
0.0
 11
288.23863072986
 21
14.650820768521
 31
0.0
  0
ARC
  8
CUT
  5
A72
 10
289.370762156386
 20
11.872641790652
 30
0.0
 40
3.0
 50
22.171311143297
 51
112.1713111433
  0
LINE
  8
CUT
  5
A73
 10
292.148941134255
 20
13.004773217178
 30
0.0
 11
292.715006847517
 21
11.615683728244
 31
0.0
  0
LINE
  8
CUT
  5
A74
 10
291.068959296174
 20
7.705373323849
 30
0.0
 11
289.67986980724
 21
7.139307610586
 31
0.0
  0
ARC
  8
CUT
  5
A75
 10
289.936827869648
 20
10.483552301718
 30
0.0
 40
3.0
 50
292.1713111433
 51
22.171311143297
  0
LINE
  8
CUT
  5
A76
 10
288.033822255896
 20
3.228997206191
 30
0.0
 11
288.599887969159
 21
1.839907717257
 31
0.0
  0
ARC
  8
CUT
  5
A77
 10
290.812001233765
 20
4.361128632717
 30
0.0
 40
3.0
 50
112.1713111433
 51
202.171311143297
  0
LINE
  8
CUT
  5
A78
 10
292.510198373554
 20
0.193860165914
 30
0.0
 11
335.571972530522
 21
17.741897277062
 31
0.0
  0
ARC
  8
CUT
  5
A79
 10
334.439841103997
 20
20.520076254931
 30
0.0
 40
3.0
 50
292.1713111433
 51
22.171311143297
  0
ARC
  8
CUT
  5
A7A
 10
291.378066947028
 20
2.972039143783
 30
0.0
 40
3.0
 50
202.171311143297
 51
292.1713111433
  0
LINE
  8
CUT
  5
A7B
 10
337.218020081866
 20
21.652207681457
 30
0.0
 11
336.651954368603
 21
23.041297170391
 31
0.0
  0
LINE
  8
CUT
  5
A7C
 10
332.741643964208
 20
24.687344721734
 30
0.0
 11
331.352554475274
 21
24.121279008472
 31
0.0
  0
ARC
  8
CUT
  5
A7D
 10
333.873775390734
 20
21.909165743866
 30
0.0
 40
3.0
 50
22.171311143297
 51
112.1713111433
  0
ARC
  8
CUT
  5
A7E
 10
330.220423048748
 20
26.899457986341
 30
0.0
 40
3.0
 50
202.171311143297
 51
292.1713111433
  0
LINE
  8
CUT
  5
A7F
 10
327.442244070879
 20
25.767326559815
 30
0.0
 11
326.876178357616
 21
27.156416048749
 31
0.0
  0
ARC
  8
CUT
  5
A80
 10
329.654357335485
 20
28.288547475275
 30
0.0
 40
3.0
 50
112.1713111433
 51
202.171311143297
  0
LINE
  8
CUT
  5
A81
 10
328.522225908959
 20
31.066726453144
 30
0.0
 11
350.747657731911
 21
40.123777865349
 31
0.0
  0
ARC
  8
CUT
  5
A82
 10
351.879789158436
 20
37.34559888748
 30
0.0
 40
3.0
 50
22.171311143297
 51
112.1713111433
  0
LINE
  8
CUT
  5
A83
 10
354.657968136305
 20
38.477730314006
 30
0.0
 11
355.224033849568
 21
37.088640825072
 31
0.0
  0
LINE
  8
CUT
  5
A84
 10
353.577986298225
 20
33.178330420677
 30
0.0
 11
352.18889680929
 21
32.612264707414
 31
0.0
  0
ARC
  8
CUT
  5
A85
 10
352.445854871699
 20
35.956509398546
 30
0.0
 40
3.0
 50
292.1713111433
 51
22.171311143297
  0
LINE
  8
CUT
  5
A86
 10
350.542849257947
 20
28.70195430302
 30
0.0
 11
351.10891497121
 21
27.312864814085
 31
0.0
  0
ARC
  8
CUT
  5
A87
 10
353.887093949079
 20
28.444996240611
 30
0.0
 40
3.0
 50
202.171311143297
 51
292.1713111433
  0
ARC
  8
CUT
  5
A88
 10
353.321028235816
 20
29.834085729545
 30
0.0
 40
3.0
 50
112.1713111433
 51
202.171311143297
  0
LINE
  8
CUT
  5
A89
 10
355.019225375605
 20
25.666817262742
 30
0.0
 11
398.080999532573
 21
43.21485437389
 31
0.0
  0
ARC
  8
CUT
  5
A8A
 10
396.948868106048
 20
45.993033351759
 30
0.0
 40
3.0
 50
292.1713111433
 51
22.171311143297
  0
LINE
  8
CUT
  5
A8B
 10
399.727047083917
 20
47.125164778285
 30
0.0
 11
399.160981370654
 21
48.514254267219
 31
0.0
  0
LINE
  8
CUT
  5
A8C
 10
395.250670966259
 20
50.160301818562
 30
0.0
 11
393.861581477325
 21
49.5942361053
 31
0.0
  0
ARC
  8
CUT
  5
A8D
 10
392.729450050799
 20
52.372415083169
 30
0.0
 40
3.0
 50
202.171311143297
 51
292.1713111433
  0
ARC
  8
CUT
  5
A8E
 10
396.382802392785
 20
47.382122840693
 30
0.0
 40
3.0
 50
22.171311143297
 51
112.1713111433
  0
LINE
  8
CUT
  5
A8F
 10
389.95127107293
 20
51.240283656643
 30
0.0
 11
389.385205359667
 21
52.629373145577
 31
0.0
  0
LINE
  8
CUT
  5
A90
 10
391.03125291101
 20
56.539683549972
 30
0.0
 11
393.861605748033
 21
57.693076265299
 31
0.0
  0
LINE
  8
CUT
  5
A91
 10
396.639784725902
 20
58.825207691825
 30
0.0
 11
401.270083022351
 21
60.712093402701
 31
0.0
  0
ARC
  8
CUT
  5
A92
 10
392.163384337536
 20
53.761504572103
 30
0.0
 40
3.0
 50
112.1713111433
 51
202.171311143297
  0
LINE
  8
SCORE
  5
A93
 10
337.662268111269
 20
219.028285843745
 30
0.0
 11
348.579316843631
 21
192.238538136013
 31
0.0
  0
LINE
  8
SCORE
  5
A94
 10
206.457615399195
 20
165.561280361013
 30
0.0
 11
217.374664131557
 21
138.771532653282
 31
0.0
  0
ARC
  8
CUT
  5
A95
 10
540.056379530027
 20
285.886329055191
 30
0.0
 40
15.0
 50
245.406549871515
 51
286.43214066604
  0
ARC
  8
CUT
  5
A96
 10
540.056379530027
 20
285.886329055191
 30
0.0
 40
15.0
 50
297.910481620559
 51
158.936072415076
  0
ARC
  8
CUT
  5
A97
 10
525.125499568905
 20
291.636878905992
 30
0.0
 40
1.0
 50
297.477754707934
 51
338.936072415076
  0
ARC
  8
CUT
  5
A98
 10
258.408445362023
 20
804.481620948208
 30
0.0
 40
579.055115404356
 50
287.059106307789
 51
297.477754707934
  0
ARC
  8
CUT
  5
A99
 10
701.100266097748
 20
-281.856132095876
 30
0.0
 40
579.055115404356
 50
106.86486757867
 51
115.685453416993
  0
ARC
  8
CUT
  5
A9A
 10
701.100266097748
 20
-281.856132095876
 30
0.0
 40
579.055115404356
 50
115.982902437106
 51
117.283515978804
  0
ARC
  8
CUT
  5
A9B
 10
437.040126691617
 20
230.112361817901
 30
0.0
 40
3.0
 50
117.283515978804
 51
192.009492652181
  0
ARC
  8
CUT
  5
A9C
 10
533.397549953119
 20
271.337789999132
 30
0.0
 40
1.0
 50
65.406549871515
 51
106.86486757866
  0
ARC
  8
SCORE
  5
A9D
 10
544.362872055077
 20
287.641261176032
 30
0.0
 40
18.724594367194
 50
169.891331600395
 51
234.451290686215
  0
ARC
  8
CUT
  5
A9E
 10
14.980552712798
 20
71.913489441835
 30
0.0
 40
15.0
 50
65.406549871497
 51
106.43214066604
  0
ARC
  8
CUT
  5
A9F
 10
14.980552712798
 20
71.913489441835
 30
0.0
 40
15.0
 50
117.910481620559
 51
338.936072415076
  0
ARC
  8
CUT
  5
AA0
 10
21.639382289707
 20
86.462028497894
 30
0.0
 40
1.0
 50
245.406549871515
 51
286.86486757867
  0
ARC
  8
CUT
  5
AA1
 10
-146.063333854922
 20
639.655950592903
 30
0.0
 40
579.055115404356
 50
286.86486757867
 51
295.691123222708
  0
ARC
  8
CUT
  5
AA2
 10
-146.063333854922
 20
639.655950592903
 30
0.0
 40
579.055115404356
 50
295.988574128913
 51
297.443648582389
  0
ARC
  8
CUT
  5
AA3
 10
296.628486880803
 20
-446.681802451181
 30
0.0
 40
579.055115404356
 50
106.89897370421
 51
117.477754707934
  0
ARC
  8
CUT
  5
AA4
 10
128.596503937864
 20
106.412194219735
 30
0.0
 40
1.0
 50
35.058054365488
 51
106.898973704198
  0
ARC
  8
CUT
  5
AA5
 10
29.911432673921
 20
66.162939591035
 30
0.0
 40
1.0
 50
117.477754707945
 51
158.936072415076
  0
ARC
  8
SCORE
  5
AA6
 10
10.674060187749
 20
70.158557320995
 30
0.0
 40
18.724594367194
 50
349.891331600395
 51
54.451290686215
  0
ARC
  8
SCORE
  5
AA7
 10
157.993911673508
 20
130.192642578573
 30
0.0
 40
36.765019294253
 50
186.388135972688
 51
217.954486314012
  0
ARC
  8
CUT
  5
AA8
 10
170.027749378693
 20
130.811108378126
 30
0.0
 40
47.084992853223
 50
210.397054026322
 51
8.451122368356
  0
ARC
  8
CUT
  5
AA9
 10
385.04905964195
 20
226.964690591157
 30
0.0
 40
47.120915896339
 50
32.333129634422
 51
188.415107427011
  0
ARC
  8
CUT
  5
AAA
 10
427.398863761203
 20
253.771411788439
 30
0.0
 40
3.0
 50
212.333129634422
 51
287.059106307777
  0
ARC
  8
CUT
  5
AAB
 10
388.01620021902
 20
219.683515117655
 30
0.0
 40
47.120915896338
 50
215.927514859586
 51
12.009492652181
  0
LINE
  8
CUT
  5
AAC
 10
107.673928179841
 20
119.154049990172
 30
0.0
 11
111.172094871447
 21
110.569769988756
 31
0.0
  0
LINE
  8
CUT
  5
AAD
 10
443.916455115803
 20
247.254937137598
 30
0.0
 11
447.414529631068
 21
238.670883331096
 31
0.0
  0
LINE
  8
CUT
  5
AAE
 10
110.349071095775
 20
108.614614786559
 30
0.0
 11
110.349071095775
 21
108.614614786559
 31
0.0
  0
ARC
  8
CUT
  5
AAF
 10
109.783005382512
 20
110.003704275493
 30
0.0
 40
1.5
 50
202.171311143297
 51
292.1713111433
  0
ARC
  8
CUT
  5
AB0
 10
109.783005382512
 20
110.003704275493
 30
0.0
 40
1.5
 50
292.1713111433
 51
22.171311143297
  0
LINE
  8
CUT
  5
AB1
 10
108.393915893578
 20
109.437638562231
 30
0.0
 11
104.968336599411
 21
117.843793677351
 31
0.0
  0
LINE
  8
CUT
  5
AB2
 10
444.739478891475
 20
249.210092339795
 30
0.0
 11
444.739478891475
 21
249.210092339795
 31
0.0
  0
ARC
  8
CUT
  5
AB3
 10
445.305544604738
 20
247.821002850861
 30
0.0
 40
1.5
 50
22.171311143297
 51
112.1713111433
  0
ARC
  8
CUT
  5
AB4
 10
445.305544604738
 20
247.821002850861
 30
0.0
 40
1.5
 50
112.1713111433
 51
202.171311143297
  0
LINE
  8
CUT
  5
AB5
 10
446.694634093672
 20
248.387068564124
 30
0.0
 11
450.120233722118
 21
239.980863549968
 31
0.0
  0
LINE
  8
CUT
  5
AB6
 10
14.980552712798
 20
71.913489441835
 30
0.0
 11
14.980552712798
 21
71.913489441835
 31
0.0
  0
ARC
  8
CUT
  5
AB7
 10
14.414486999535
 20
73.30257893077
 30
0.0
 40
1.5
 50
202.171311143297
 51
292.1713111433
  0
ARC
  8
CUT
  5
AB8
 10
14.414486999535
 20
73.30257893077
 30
0.0
 40
1.5
 50
292.1713111433
 51
22.171311143297
  0
LINE
  8
CUT
  5
AB9
 10
15.80357648847
 20
73.868644644033
 30
0.0
 11
10.737359468999
 21
86.300821060165
 31
0.0
  0
LINE
  8
CUT
  5
ABA
 10
13.025397510601
 20
72.736513217507
 30
0.0
 11
7.95918049113
 21
85.168689633639
 31
0.0
  0
LINE
  8
CUT
  5
ABB
 10
540.056379530027
 20
285.886329055191
 30
0.0
 11
540.056379530027
 21
285.886329055191
 31
0.0
  0
ARC
  8
CUT
  5
ABC
 10
540.62244524329
 20
284.497239566257
 30
0.0
 40
1.5
 50
22.171311143297
 51
112.1713111433
  0
LINE
  8
CUT
  5
ABD
 10
542.011534732225
 20
285.06330527952
 30
0.0
 11
547.077751751695
 21
272.631128863388
 31
0.0
  0
LINE
  8
CUT
  5
ABE
 10
540.056379530027
 20
285.886329055191
 30
0.0
 11
540.056379530027
 21
285.886329055191
 31
0.0
  0
LINE
  8
CUT
  5
ABF
 10
539.233355754356
 20
283.931173852994
 30
0.0
 11
544.299572773826
 21
271.498997436862
 31
0.0
  0
ARC
  8
CUT
  5
AC0
 10
540.62244524329
 20
284.497239566257
 30
0.0
 40
1.5
 50
112.1713111433
 51
202.171311143297
  0
LINE
  8
CUT
  5
AC1
 10
151.125209225249
 20
303.570142709353
 30
0.0
 11
155.755507521697
 21
305.457028420229
 31
0.0
  0
LINE
  8
CUT
  5
AC2
 10
151.125209225249
 20
303.570142709353
 30
0.0
 11
155.755507521697
 21
305.457028420229
 31
0.0
  0
LINE
  8
CUT
  5
AC3
 10
276.143263229351
 20
354.516056903009
 30
0.0
 11
279.641429920956
 21
345.931776901593
 31
0.0
  0
LINE
  8
CUT
  5
AC4
 10
278.818406145284
 20
343.976621699395
 30
0.0
 11
278.818406145284
 21
343.976621699395
 31
0.0
  0
ARC
  8
CUT
  5
AC5
 10
278.252340432022
 20
345.36571118833
 30
0.0
 40
1.5
 50
202.171311143297
 51
292.1713111433
  0
ARC
  8
CUT
  5
AC6
 10
278.252340432022
 20
345.36571118833
 30
0.0
 40
1.5
 50
292.1713111433
 51
22.171311143297
  0
LINE
  8
CUT
  5
AC7
 10
276.863250943087
 20
344.799645475067
 30
0.0
 11
273.365084251482
 21
353.383925476483
 31
0.0
  0
LINE
  8
CUT
  5
AC8
 10
390.436006119587
 20
66.099281279455
 30
0.0
 11
393.934080634852
 21
57.515227472953
 31
0.0
  0
LINE
  8
CUT
  5
AC9
 10
391.259029895259
 20
68.054436481652
 30
0.0
 11
391.259029895259
 21
68.054436481652
 31
0.0
  0
ARC
  8
CUT
  5
ACA
 10
391.825095608522
 20
66.665346992718
 30
0.0
 40
1.5
 50
22.171311143297
 51
112.1713111433
  0
ARC
  8
CUT
  5
ACB
 10
391.825095608522
 20
66.665346992718
 30
0.0
 40
1.5
 50
112.1713111433
 51
202.171311143297
  0
LINE
  8
CUT
  5
ACC
 10
393.214185097456
 20
67.231412705981
 30
0.0
 11
396.639784725902
 21
58.825207691825
 31
0.0
  0
LINE
  8
CUT
  5
ACD
 10
272.826429389802
 20
18.172384223201
 30
0.0
 11
276.324503905067
 21
9.588330416699
 31
0.0
  0
LINE
  8
CUT
  5
ACE
 10
273.649453165474
 20
20.127539425398
 30
0.0
 11
273.649453165474
 21
20.127539425398
 31
0.0
  0
ARC
  8
CUT
  5
ACF
 10
274.215518878737
 20
18.738449936463
 30
0.0
 40
1.5
 50
22.171311143297
 51
112.1713111433
  0
ARC
  8
CUT
  5
AD0
 10
274.215518878737
 20
18.738449936463
 30
0.0
 40
1.5
 50
112.1713111433
 51
202.171311143297
  0
LINE
  8
CUT
  5
AD1
 10
275.604608367671
 20
19.304515649726
 30
0.0
 11
279.030207996117
 21
10.898310635571
 31
0.0
  0
LINE
  8
CUT
  5
AD2
 10
158.533686499566
 20
306.589159846755
 30
0.0
 11
161.959265793733
 21
298.183004731634
 31
0.0
  0
LINE
  8
CUT
  5
AD3
 10
161.136242018061
 20
296.227849529437
 30
0.0
 11
161.136242018061
 21
296.227849529437
 31
0.0
  0
ARC
  8
CUT
  5
AD4
 10
160.570176304798
 20
297.616939018371
 30
0.0
 40
1.5
 50
202.171311143297
 51
292.1713111433
  0
ARC
  8
CUT
  5
AD5
 10
160.570176304798
 20
297.616939018371
 30
0.0
 40
1.5
 50
292.1713111433
 51
22.171311143297
  0
LINE
  8
CUT
  5
AD6
 10
159.181086815864
 20
297.050873305108
 30
0.0
 11
155.755507521697
 21
305.457028420229
 31
0.0
  0
ENDBLK
  8
0
  5
AD8
  0
ENDSEC
  0
SECTION
  2
ENTITIES
  0
LINE
  8
CUT
  5
30E
 10
405.95904498034
 20
559.486815290926
 30
0.0
 11
401.438105680734
 21
554.96587599132
 31
0.0
  0
ARC
  8
CUT
  5
30F
 10
403.130617855594
 20
562.315242415672
 30
0.0
 40
4.0
 50
315.0
 51
50.415245445967
  0
LINE
  8
CUT
  5
310
 10
401.438105680734
 20
478.619010039324
 30
0.0
 11
405.76503307404
 21
474.292082646018
 31
0.0
  0
LINE
  8
CUT
  5
311
 10
405.76503307404
 20
468.635228396526
 30
0.0
 11
400.963289173646
 21
463.833484496132
 31
0.0
  0
ARC
  8
CUT
  5
312
 10
402.936605949294
 20
471.463655521272
 30
0.0
 40
4.0
 50
315.0
 51
45.0
  0
LINE
  8
CUT
  5
313
 10
400.963289173646
 20
387.486618544136
 30
0.0
 11
405.290216566951
 21
383.159691150831
 31
0.0
  0
LINE
  8
SCORE
  5
314
 10
407.130578300409
 20
562.333031173866
 30
0.0
 11
466.016687607757
 21
562.594911453404
 31
0.0
  0
LINE
  8
SCORE
  5
315
 10
406.936605949294
 20
471.463655521272
 30
0.0
 11
465.997541661721
 21
471.463655521272
 31
0.0
  0
LINE
  8
CUT
  5
316
 10
405.290216566951
 20
377.502836901338
 30
0.0
 11
400.488472666557
 21
372.701093000944
 31
0.0
  0
ARC
  8
CUT
  5
317
 10
402.461789442205
 20
380.331264026084
 30
0.0
 40
4.0
 50
315.0
 51
45.0
  0
LINE
  8
CUT
  5
318
 10
400.488472666557
 20
296.354227048948
 30
0.0
 11
404.815400059863
 21
292.027299688834
 31
0.0
  0
LINE
  8
CUT
  5
319
 10
401.438105680734
 20
568.904854473089
 30
0.0
 11
405.679493641735
 21
565.397973708994
 31
0.0
  0
LINE
  8
CUT
  5
31A
 10
404.815400059863
 20
286.370445439342
 30
0.0
 11
400.432944167342
 21
281.987989513629
 31
0.0
  0
ARC
  8
CUT
  5
31B
 10
401.986972935116
 20
289.198872564088
 30
0.0
 40
4.0
 50
315.0
 51
45.0
  0
LINE
  8
SCORE
  5
31C
 10
406.461776242754
 20
380.320988062077
 30
0.0
 11
466.016737940855
 21
380.167991396488
 31
0.0
  0
LINE
  8
SCORE
  5
31D
 10
405.986972935116
 20
289.198872562014
 30
0.0
 11
466.016737940855
 21
289.198872530896
 31
0.0
  0
LINE
  8
CUT
  5
31E
 10
401.708818433152
 20
234.288872564088
 30
0.0
 11
419.988472666557
 21
234.288872564088
 31
0.0
  0
LINE
  8
CUT
  5
31F
 10
422.988472666557
 20
237.288872564088
 30
0.0
 11
422.988472666557
 21
238.788872564088
 31
0.0
  0
ARC
  8
CUT
  5
320
 10
419.988472666557
 20
237.288872564088
 30
0.0
 40
3.0
 50
270.0
 51
360.0
  0
LINE
  8
CUT
  5
321
 10
419.988472666557
 20
241.788872564088
 30
0.0
 11
418.488472666557
 21
241.788872564088
 31
0.0
  0
ARC
  8
CUT
  5
322
 10
419.988472666557
 20
238.788872564088
 30
0.0
 40
3.0
 50
0.0
 51
90.0
  0
LINE
  8
CUT
  5
323
 10
415.488472666557
 20
244.788872564088
 30
0.0
 11
415.488472666557
 21
246.288872564088
 31
0.0
  0
ARC
  8
CUT
  5
324
 10
418.488472666557
 20
246.288872564088
 30
0.0
 40
3.0
 50
90.0
 51
180.0
  0
ARC
  8
CUT
  5
325
 10
418.488472666557
 20
244.788872564088
 30
0.0
 40
3.0
 50
180.0
 51
270.0
  0
LINE
  8
CUT
  5
326
 10
418.488472666557
 20
249.288872564088
 30
0.0
 11
442.488472666557
 21
249.288872564088
 31
0.0
  0
ARC
  8
CUT
  5
327
 10
442.488472666557
 20
246.288872564088
 30
0.0
 40
3.0
 50
0.0
 51
90.0
  0
LINE
  8
CUT
  5
328
 10
445.488472666557
 20
246.288872564088
 30
0.0
 11
445.488472666557
 21
244.788872564088
 31
0.0
  0
LINE
  8
CUT
  5
329
 10
442.488472666557
 20
241.788872564088
 30
0.0
 11
440.988472666557
 21
241.788872564088
 31
0.0
  0
ARC
  8
CUT
  5
32A
 10
442.488472666557
 20
244.788872564088
 30
0.0
 40
3.0
 50
270.0
 51
360.0
  0
LINE
  8
CUT
  5
32B
 10
437.988472666557
 20
238.788872564088
 30
0.0
 11
437.988472666557
 21
237.288872564088
 31
0.0
  0
ARC
  8
CUT
  5
32C
 10
440.988472666557
 20
238.788872564088
 30
0.0
 40
3.0
 50
90.0
 51
180.0
  0
LINE
  8
CUT
  5
32D
 10
440.988472666557
 20
234.288872564088
 30
0.0
 11
487.488472666557
 21
234.288872564088
 31
0.0
  0
ARC
  8
CUT
  5
32E
 10
487.488472666557
 20
237.288872564088
 30
0.0
 40
3.0
 50
270.0
 51
360.0
  0
ARC
  8
CUT
  5
32F
 10
440.988472666557
 20
237.288872564088
 30
0.0
 40
3.0
 50
180.0
 51
270.0
  0
LINE
  8
CUT
  5
330
 10
490.488472666557
 20
237.288872564088
 30
0.0
 11
490.488472666557
 21
238.788872564088
 31
0.0
  0
LINE
  8
CUT
  5
331
 10
487.488472666557
 20
241.788872564088
 30
0.0
 11
485.988472666557
 21
241.788872564088
 31
0.0
  0
ARC
  8
CUT
  5
332
 10
487.488472666557
 20
238.788872564088
 30
0.0
 40
3.0
 50
0.0
 51
90.0
  0
ARC
  8
CUT
  5
333
 10
485.988472666557
 20
244.788872564088
 30
0.0
 40
3.0
 50
180.0
 51
270.0
  0
LINE
  8
CUT
  5
334
 10
482.988472666557
 20
244.788872564088
 30
0.0
 11
482.988472666557
 21
246.288872564088
 31
0.0
  0
ARC
  8
CUT
  5
335
 10
485.988472666557
 20
246.288872564088
 30
0.0
 40
3.0
 50
90.0
 51
180.0
  0
LINE
  8
CUT
  5
336
 10
485.988472666557
 20
249.288872564088
 30
0.0
 11
509.988472666557
 21
249.288872564088
 31
0.0
  0
ARC
  8
CUT
  5
337
 10
509.988472666557
 20
246.288872564088
 30
0.0
 40
3.0
 50
0.0
 51
90.0
  0
LINE
  8
CUT
  5
338
 10
512.988472666557
 20
246.288872564088
 30
0.0
 11
512.988472666557
 21
244.788872564088
 31
0.0
  0
LINE
  8
CUT
  5
339
 10
509.988472666557
 20
241.788872564088
 30
0.0
 11
508.488472666557
 21
241.788872564088
 31
0.0
  0
ARC
  8
CUT
  5
33A
 10
509.988472666557
 20
244.788872564088
 30
0.0
 40
3.0
 50
270.0
 51
360.0
  0
LINE
  8
CUT
  5
33B
 10
505.488472666557
 20
238.788872564088
 30
0.0
 11
505.488472666557
 21
237.288872564088
 31
0.0
  0
ARC
  8
CUT
  5
33C
 10
508.488472666557
 20
237.288872564088
 30
0.0
 40
3.0
 50
180.0
 51
270.0
  0
ARC
  8
CUT
  5
33D
 10
508.488472666557
 20
238.788872564088
 30
0.0
 40
3.0
 50
90.0
 51
180.0
  0
LINE
  8
CUT
  5
33E
 10
508.488472666557
 20
234.288872564088
 30
0.0
 11
554.988472666557
 21
234.288872564088
 31
0.0
  0
ARC
  8
CUT
  5
33F
 10
554.988472666557
 20
237.288872564088
 30
0.0
 40
3.0
 50
270.0
 51
360.0
  0
LINE
  8
CUT
  5
340
 10
557.988472666557
 20
237.288872564088
 30
0.0
 11
557.988472666557
 21
238.788872564088
 31
0.0
  0
LINE
  8
CUT
  5
341
 10
554.988472666557
 20
241.788872564088
 30
0.0
 11
553.488472666557
 21
241.788872564088
 31
0.0
  0
ARC
  8
CUT
  5
342
 10
553.488472666557
 20
244.788872564088
 30
0.0
 40
3.0
 50
180.0
 51
270.0
  0
ARC
  8
CUT
  5
343
 10
554.988472666557
 20
238.788872564088
 30
0.0
 40
3.0
 50
0.0
 51
90.0
  0
LINE
  8
CUT
  5
344
 10
550.488472666557
 20
244.788872564088
 30
0.0
 11
550.488472666557
 21
246.288872564088
 31
0.0
  0
LINE
  8
CUT
  5
345
 10
553.488472666557
 20
249.288872564088
 30
0.0
 11
577.488472666557
 21
249.288872564088
 31
0.0
  0
ARC
  8
CUT
  5
346
 10
577.488472666557
 20
246.288872564088
 30
0.0
 40
3.0
 50
0.0
 51
90.0
  0
ARC
  8
CUT
  5
347
 10
553.488472666557
 20
246.288872564088
 30
0.0
 40
3.0
 50
90.0
 51
180.0
  0
LINE
  8
CUT
  5
348
 10
580.488472666557
 20
246.288872564088
 30
0.0
 11
580.488472666557
 21
244.788872564088
 31
0.0
  0
LINE
  8
CUT
  5
349
 10
577.488472666557
 20
241.788872564088
 30
0.0
 11
575.988472666557
 21
241.788872564088
 31
0.0
  0
ARC
  8
CUT
  5
34A
 10
577.488472666557
 20
244.788872564088
 30
0.0
 40
3.0
 50
270.0
 51
360.0
  0
LINE
  8
CUT
  5
34B
 10
572.988472666557
 20
238.788872564088
 30
0.0
 11
572.988472666557
 21
237.288872564088
 31
0.0
  0
ARC
  8
CUT
  5
34C
 10
575.988472666557
 20
238.788872564088
 30
0.0
 40
3.0
 50
90.0
 51
180.0
  0
LINE
  8
CUT
  5
34D
 10
575.988472666557
 20
234.288872564088
 30
0.0
 11
622.488472666557
 21
234.288872564088
 31
0.0
  0
ARC
  8
CUT
  5
34E
 10
622.488472666557
 20
237.288872564088
 30
0.0
 40
3.0
 50
270.0
 51
360.0
  0
ARC
  8
CUT
  5
34F
 10
575.988472666557
 20
237.288872564088
 30
0.0
 40
3.0
 50
180.0
 51
270.0
  0
LINE
  8
CUT
  5
350
 10
625.488472666557
 20
237.288872564088
 30
0.0
 11
625.488472666557
 21
238.788872564088
 31
0.0
  0
LINE
  8
CUT
  5
351
 10
622.488472666557
 20
241.788872564088
 30
0.0
 11
620.988472666557
 21
241.788872564088
 31
0.0
  0
ARC
  8
CUT
  5
352
 10
622.488472666557
 20
238.788872564088
 30
0.0
 40
3.0
 50
0.0
 51
90.0
  0
LINE
  8
CUT
  5
353
 10
617.988472666557
 20
244.788872564088
 30
0.0
 11
617.988472666557
 21
246.288872564088
 31
0.0
  0
ARC
  8
CUT
  5
354
 10
620.988472666557
 20
244.788872564088
 30
0.0
 40
3.0
 50
180.0
 51
270.0
  0
LINE
  8
CUT
  5
355
 10
620.988472666557
 20
249.288872564088
 30
0.0
 11
644.988472666557
 21
249.288872564088
 31
0.0
  0
ARC
  8
CUT
  5
356
 10
644.988472666557
 20
246.288872564088
 30
0.0
 40
3.0
 50
0.0
 51
90.0
  0
ARC
  8
CUT
  5
357
 10
620.988472666557
 20
246.288872564088
 30
0.0
 40
3.0
 50
90.0
 51
180.0
  0
LINE
  8
CUT
  5
358
 10
647.988472666557
 20
246.288872564088
 30
0.0
 11
647.988472666557
 21
244.788872564088
 31
0.0
  0
LINE
  8
CUT
  5
359
 10
644.988472666557
 20
241.788872564088
 30
0.0
 11
643.488472666557
 21
241.788872564088
 31
0.0
  0
ARC
  8
CUT
  5
35A
 10
644.988472666557
 20
244.788872564088
 30
0.0
 40
3.0
 50
270.0
 51
360.0
  0
LINE
  8
CUT
  5
35B
 10
640.488472666557
 20
238.788872564088
 30
0.0
 11
640.488472666557
 21
237.288872564088
 31
0.0
  0
ARC
  8
CUT
  5
35C
 10
643.488472666557
 20
238.788872564088
 30
0.0
 40
3.0
 50
90.0
 51
180.0
  0
LINE
  8
CUT
  5
35D
 10
643.488472666557
 20
234.288872564088
 30
0.0
 11
662.999709869253
 21
234.288872564088
 31
0.0
  0
ARC
  8
CUT
  5
35E
 10
643.488472666557
 20
237.288872564088
 30
0.0
 40
3.0
 50
180.0
 51
270.0
  0
LINE
  8
CUT
  5
35F
 10
402.798542725894
 20
607.315242415672
 30
0.0
 11
413.438105680734
 21
607.315242415672
 31
0.0
  0
LINE
  8
CUT
  5
360
 10
416.438105680734
 20
610.315242415672
 30
0.0
 11
416.438105680734
 21
611.815242415672
 31
0.0
  0
ARC
  8
CUT
  5
361
 10
413.438105680734
 20
610.315242415672
 30
0.0
 40
3.0
 50
270.0
 51
360.0
  0
ARC
  8
CUT
  5
362
 10
413.438105680734
 20
611.815242415672
 30
0.0
 40
3.0
 50
0.0
 51
90.0
  0
LINE
  8
CUT
  5
363
 10
413.438105680734
 20
614.815242415672
 30
0.0
 11
411.938105680734
 21
614.815242415672
 31
0.0
  0
LINE
  8
CUT
  5
364
 10
408.938105680734
 20
617.815242415672
 30
0.0
 11
408.938105680734
 21
619.315242415672
 31
0.0
  0
ARC
  8
CUT
  5
365
 10
411.938105680734
 20
617.815242415672
 30
0.0
 40
3.0
 50
180.0
 51
270.0
  0
ARC
  8
CUT
  5
366
 10
411.938105680734
 20
619.315242415672
 30
0.0
 40
3.0
 50
90.0
 51
180.0
  0
LINE
  8
CUT
  5
367
 10
411.938105680734
 20
622.315242415672
 30
0.0
 11
450.938105680734
 21
622.315242415672
 31
0.0
  0
LINE
  8
CUT
  5
368
 10
453.938105680734
 20
619.315242415672
 30
0.0
 11
453.938105680734
 21
617.815242415672
 31
0.0
  0
ARC
  8
CUT
  5
369
 10
450.938105680734
 20
619.315242415672
 30
0.0
 40
3.0
 50
0.0
 51
90.0
  0
LINE
  8
CUT
  5
36A
 10
450.938105680734
 20
614.815242415672
 30
0.0
 11
449.438105680734
 21
614.815242415672
 31
0.0
  0
ARC
  8
CUT
  5
36B
 10
450.938105680734
 20
617.815242415672
 30
0.0
 40
3.0
 50
270.0
 51
360.0
  0
LINE
  8
CUT
  5
36C
 10
446.438105680734
 20
611.815242415672
 30
0.0
 11
446.438105680734
 21
610.315242415672
 31
0.0
  0
ARC
  8
CUT
  5
36D
 10
449.438105680734
 20
611.815242415672
 30
0.0
 40
3.0
 50
90.0
 51
180.0
  0
LINE
  8
CUT
  5
36E
 10
449.438105680734
 20
607.315242415672
 30
0.0
 11
480.938105680734
 21
607.315242415672
 31
0.0
  0
ARC
  8
CUT
  5
36F
 10
480.938105680734
 20
610.315242415672
 30
0.0
 40
3.0
 50
270.0
 51
360.0
  0
ARC
  8
CUT
  5
370
 10
449.438105680734
 20
610.315242415672
 30
0.0
 40
3.0
 50
180.0
 51
270.0
  0
LINE
  8
CUT
  5
371
 10
483.938105680734
 20
610.315242415672
 30
0.0
 11
483.938105680734
 21
611.815242415672
 31
0.0
  0
LINE
  8
CUT
  5
372
 10
480.938105680734
 20
614.815242415672
 30
0.0
 11
479.438105680734
 21
614.815242415672
 31
0.0
  0
ARC
  8
CUT
  5
373
 10
480.938105680734
 20
611.815242415672
 30
0.0
 40
3.0
 50
0.0
 51
90.0
  0
LINE
  8
CUT
  5
374
 10
476.438105680734
 20
617.815242415672
 30
0.0
 11
476.438105680734
 21
619.315242415672
 31
0.0
  0
ARC
  8
CUT
  5
375
 10
479.438105680734
 20
617.815242415672
 30
0.0
 40
3.0
 50
180.0
 51
270.0
  0
LINE
  8
CUT
  5
376
 10
479.438105680734
 20
622.315242415672
 30
0.0
 11
518.438105680734
 21
622.315242415672
 31
0.0
  0
ARC
  8
CUT
  5
377
 10
479.438105680734
 20
619.315242415672
 30
0.0
 40
3.0
 50
90.0
 51
180.0
  0
LINE
  8
CUT
  5
378
 10
521.438105680734
 20
619.315242415672
 30
0.0
 11
521.438105680734
 21
617.815242415672
 31
0.0
  0
ARC
  8
CUT
  5
379
 10
518.438105680734
 20
619.315242415672
 30
0.0
 40
3.0
 50
0.0
 51
90.0
  0
LINE
  8
CUT
  5
37A
 10
518.438105680734
 20
614.815242415672
 30
0.0
 11
516.938105680734
 21
614.815242415672
 31
0.0
  0
ARC
  8
CUT
  5
37B
 10
518.438105680734
 20
617.815242415672
 30
0.0
 40
3.0
 50
270.0
 51
360.0
  0
LINE
  8
CUT
  5
37C
 10
513.938105680734
 20
611.815242415672
 30
0.0
 11
513.938105680734
 21
610.315242415672
 31
0.0
  0
ARC
  8
CUT
  5
37D
 10
516.938105680734
 20
611.815242415672
 30
0.0
 40
3.0
 50
90.0
 51
180.0
  0
LINE
  8
CUT
  5
37E
 10
516.938105680734
 20
607.315242415672
 30
0.0
 11
548.438105680734
 21
607.315242415672
 31
0.0
  0
ARC
  8
CUT
  5
37F
 10
516.938105680734
 20
610.315242415672
 30
0.0
 40
3.0
 50
180.0
 51
270.0
  0
LINE
  8
CUT
  5
380
 10
551.438105680734
 20
610.315242415672
 30
0.0
 11
551.438105680734
 21
611.815242415672
 31
0.0
  0
ARC
  8
CUT
  5
381
 10
548.438105680734
 20
610.315242415672
 30
0.0
 40
3.0
 50
270.0
 51
360.0
  0
LINE
  8
CUT
  5
382
 10
548.438105680734
 20
614.815242415672
 30
0.0
 11
546.938105680734
 21
614.815242415672
 31
0.0
  0
ARC
  8
CUT
  5
383
 10
546.938105680734
 20
617.815242415672
 30
0.0
 40
3.0
 50
180.0
 51
270.0
  0
ARC
  8
CUT
  5
384
 10
548.438105680734
 20
611.815242415672
 30
0.0
 40
3.0
 50
0.0
 51
90.0
  0
LINE
  8
CUT
  5
385
 10
543.938105680734
 20
617.815242415672
 30
0.0
 11
543.938105680734
 21
619.315242415672
 31
0.0
  0
LINE
  8
CUT
  5
386
 10
546.938105680734
 20
622.315242415672
 30
0.0
 11
585.938105680734
 21
622.315242415672
 31
0.0
  0
ARC
  8
CUT
  5
387
 10
585.938105680734
 20
619.315242415672
 30
0.0
 40
3.0
 50
0.0
 51
90.0
  0
ARC
  8
CUT
  5
388
 10
546.938105680734
 20
619.315242415672
 30
0.0
 40
3.0
 50
90.0
 51
180.0
  0
LINE
  8
CUT
  5
389
 10
588.938105680734
 20
619.315242415672
 30
0.0
 11
588.938105680734
 21
617.815242415672
 31
0.0
  0
LINE
  8
CUT
  5
38A
 10
585.938105680734
 20
614.815242415672
 30
0.0
 11
584.438105680734
 21
614.815242415672
 31
0.0
  0
ARC
  8
CUT
  5
38B
 10
585.938105680734
 20
617.815242415672
 30
0.0
 40
3.0
 50
270.0
 51
360.0
  0
LINE
  8
CUT
  5
38C
 10
581.438105680734
 20
611.815242415672
 30
0.0
 11
581.438105680734
 21
610.315242415672
 31
0.0
  0
ARC
  8
CUT
  5
38D
 10
584.438105680734
 20
611.815242415672
 30
0.0
 40
3.0
 50
90.0
 51
180.0
  0
LINE
  8
CUT
  5
38E
 10
584.438105680734
 20
607.315242415672
 30
0.0
 11
615.938105680734
 21
607.315242415672
 31
0.0
  0
ARC
  8
CUT
  5
38F
 10
584.438105680734
 20
610.315242415672
 30
0.0
 40
3.0
 50
180.0
 51
270.0
  0
LINE
  8
CUT
  5
390
 10
618.938105680734
 20
610.315242415672
 30
0.0
 11
618.938105680734
 21
611.815242415672
 31
0.0
  0
ARC
  8
CUT
  5
391
 10
615.938105680734
 20
610.315242415672
 30
0.0
 40
3.0
 50
270.0
 51
360.0
  0
LINE
  8
CUT
  5
392
 10
615.938105680734
 20
614.815242415672
 30
0.0
 11
614.438105680734
 21
614.815242415672
 31
0.0
  0
ARC
  8
CUT
  5
393
 10
615.938105680734
 20
611.815242415672
 30
0.0
 40
3.0
 50
0.0
 51
90.0
  0
LINE
  8
CUT
  5
394
 10
611.438105680734
 20
617.815242415672
 30
0.0
 11
611.438105680734
 21
619.315242415672
 31
0.0
  0
ARC
  8
CUT
  5
395
 10
614.438105680734
 20
617.815242415672
 30
0.0
 40
3.0
 50
180.0
 51
270.0
  0
LINE
  8
CUT
  5
396
 10
614.438105680734
 20
622.315242415672
 30
0.0
 11
653.438105680734
 21
622.315242415672
 31
0.0
  0
ARC
  8
CUT
  5
397
 10
614.438105680734
 20
619.315242415672
 30
0.0
 40
3.0
 50
90.0
 51
180.0
  0
LINE
  8
CUT
  5
398
 10
656.438105680734
 20
619.315242415672
 30
0.0
 11
656.438105680734
 21
617.815242415672
 31
0.0
  0
ARC
  8
CUT
  5
399
 10
653.438105680734
 20
619.315242415672
 30
0.0
 40
3.0
 50
0.0
 51
90.0
  0
LINE
  8
CUT
  5
39A
 10
653.438105680734
 20
614.815242415672
 30
0.0
 11
651.938105680734
 21
614.815242415672
 31
0.0
  0
ARC
  8
CUT
  5
39B
 10
653.438105680734
 20
617.815242415672
 30
0.0
 40
3.0
 50
270.0
 51
360.0
  0
LINE
  8
CUT
  5
39C
 10
648.938105680734
 20
611.815242415672
 30
0.0
 11
648.938105680734
 21
610.315242415672
 31
0.0
  0
ARC
  8
CUT
  5
39D
 10
651.938105680734
 20
610.315242415672
 30
0.0
 40
3.0
 50
180.0
 51
270.0
  0
ARC
  8
CUT
  5
39E
 10
651.938105680734
 20
611.815242415672
 30
0.0
 40
3.0
 50
90.0
 51
180.0
  0
LINE
  8
CUT
  5
39F
 10
651.938105680734
 20
607.315242415672
 30
0.0
 11
662.999709869254
 21
607.315242415672
 31
0.0
  0
LINE
  8
CUT
  5
3A0
 10
662.999709869254
 20
607.315242415672
 30
0.0
 11
662.999709869253
 21
234.288872564088
 31
0.0
  0
LINE
  8
SCORE
  5
3A1
 10
466.016687607757
 20
562.594911453404
 30
0.0
 11
465.997541661721
 21
471.463655521272
 31
0.0
  0
LINE
  8
SCORE
  5
3A2
 10
466.016687607757
 20
562.594911453404
 30
0.0
 11
506.873784079154
 21
536.265302578011
 31
0.0
  0
LINE
  8
CUT
  5
3A3
 10
506.703229492124
 20
538.49555866668
 30
0.0
 11
502.787099107341
 21
589.704815402457
 31
0.0
  0
LINE
  8
SCORE
  5
3A4
 10
502.787099107341
 20
589.704815402457
 30
0.0
 11
466.016687607757
 21
562.594911453404
 31
0.0
  0
ARC
  8
CUT
  5
3A5
 10
509.699153274895
 20
517.047499918363
 30
0.0
 40
19.424382877131
 50
266.524795896281
 51
93.065955084676
  0
ARC
  8
CUT
  5
3A6
 10
516.635297828664
 20
517.14921055074
 30
0.0
 40
17.853539050646
 50
123.144683654868
 51
236.148013142578
  0
LINE
  8
CUT
  5
3A7
 10
508.90749068656
 20
589.344206707007
 30
0.0
 11
521.256602663869
 21
581.519643150802
 31
0.0
  0
ARC
  8
CUT
  5
3A8
 10
517.204932403038
 20
572.377216334168
 30
0.0
 40
10.0
 50
11.745833411727
 51
66.098405723393
  0
LINE
  8
CUT
  5
3A9
 10
526.995535191671
 20
574.412921871622
 30
0.0
 11
536.802737079484
 21
527.245776926083
 31
0.0
  0
LINE
  8
SCORE
  5
3AA
 10
465.997541661721
 20
471.463655521272
 30
0.0
 11
506.689995087972
 21
497.857616720087
 31
0.0
  0
LINE
  8
CUT
  5
3AB
 10
506.505405639004
 20
495.714781047749
 30
0.0
 11
502.092182552771
 21
444.483186218933
 31
0.0
  0
LINE
  8
SCORE
  5
3AC
 10
502.092182552771
 20
444.483186218933
 30
0.0
 11
465.997541661721
 21
471.463655521272
 31
0.0
  0
LINE
  8
CUT
  5
3AD
 10
526.448633468877
 20
459.537196328452
 30
0.0
 11
536.695006726797
 21
506.383697817778
 31
0.0
  0
ARC
  8
CUT
  5
3AE
 10
487.849723136321
 20
517.067249238815
 30
0.0
 40
50.0
 50
347.662428858051
 51
11.745833411727
  0
ARC
  8
CUT
  5
3AF
 10
510.463450508849
 20
517.15176851085
 30
0.0
 40
15.0
 50
265.140331097832
 51
94.859668902168
  0
ARC
  8
CUT
  5
3B0
 10
505.482086783259
 20
583.326056353265
 30
0.0
 40
6.924704006743
 50
60.352383252619
 51
112.903768006149
  0
LINE
  8
CUT
  5
3B1
 10
508.21257413199
 20
444.843794914383
 30
0.0
 11
520.561686109299
 21
452.668358470588
 31
0.0
  0
ARC
  8
CUT
  5
3B2
 10
515.867039158557
 20
462.649039665205
 30
0.0
 40
11.029673934469
 50
295.191045357731
 51
343.612404688888
  0
ARC
  8
CUT
  5
3B3
 10
504.787170228689
 20
450.861945268125
 30
0.0
 40
6.924704006743
 50
247.096231993851
 51
299.647616747381
  0
LINE
  8
CUT
  5
3B4
 10
402.798542725894
 20
607.315242415672
 30
0.0
 11
413.438105680734
 21
607.315242415672
 31
0.0
  0
LINE
  8
CUT
  5
3B5
 10
416.438105680734
 20
610.315242415672
 30
0.0
 11
416.438105680734
 21
611.815242415672
 31
0.0
  0
ARC
  8
CUT
  5
3B6
 10
413.438105680734
 20
610.315242415672
 30
0.0
 40
3.0
 50
270.0
 51
360.0
  0
ARC
  8
CUT
  5
3B7
 10
413.438105680734
 20
611.815242415672
 30
0.0
 40
3.0
 50
0.0
 51
90.0
  0
LINE
  8
CUT
  5
3B8
 10
413.438105680734
 20
614.815242415672
 30
0.0
 11
411.938105680734
 21
614.815242415672
 31
0.0
  0
LINE
  8
CUT
  5
3B9
 10
408.938105680734
 20
617.815242415672
 30
0.0
 11
408.938105680734
 21
619.315242415672
 31
0.0
  0
ARC
  8
CUT
  5
3BA
 10
411.938105680734
 20
617.815242415672
 30
0.0
 40
3.0
 50
180.0
 51
270.0
  0
ARC
  8
CUT
  5
3BB
 10
411.938105680734
 20
619.315242415672
 30
0.0
 40
3.0
 50
90.0
 51
180.0
  0
LINE
  8
CUT
  5
3BC
 10
411.938105680734
 20
622.315242415672
 30
0.0
 11
450.938105680734
 21
622.315242415672
 31
0.0
  0
LINE
  8
CUT
  5
3BD
 10
453.938105680734
 20
619.315242415672
 30
0.0
 11
453.938105680734
 21
617.815242415672
 31
0.0
  0
ARC
  8
CUT
  5
3BE
 10
450.938105680734
 20
619.315242415672
 30
0.0
 40
3.0
 50
0.0
 51
90.0
  0
LINE
  8
CUT
  5
3BF
 10
450.938105680734
 20
614.815242415672
 30
0.0
 11
449.438105680734
 21
614.815242415672
 31
0.0
  0
ARC
  8
CUT
  5
3C0
 10
450.938105680734
 20
617.815242415672
 30
0.0
 40
3.0
 50
270.0
 51
360.0
  0
LINE
  8
CUT
  5
3C1
 10
446.438105680734
 20
611.815242415672
 30
0.0
 11
446.438105680734
 21
610.315242415672
 31
0.0
  0
ARC
  8
CUT
  5
3C2
 10
449.438105680734
 20
611.815242415672
 30
0.0
 40
3.0
 50
90.0
 51
180.0
  0
LINE
  8
CUT
  5
3C3
 10
449.438105680734
 20
607.315242415672
 30
0.0
 11
480.938105680734
 21
607.315242415672
 31
0.0
  0
ARC
  8
CUT
  5
3C4
 10
480.938105680734
 20
610.315242415672
 30
0.0
 40
3.0
 50
270.0
 51
360.0
  0
ARC
  8
CUT
  5
3C5
 10
449.438105680734
 20
610.315242415672
 30
0.0
 40
3.0
 50
180.0
 51
270.0
  0
LINE
  8
CUT
  5
3C6
 10
483.938105680734
 20
610.315242415672
 30
0.0
 11
483.938105680734
 21
611.815242415672
 31
0.0
  0
LINE
  8
CUT
  5
3C7
 10
480.938105680734
 20
614.815242415672
 30
0.0
 11
479.438105680734
 21
614.815242415672
 31
0.0
  0
ARC
  8
CUT
  5
3C8
 10
480.938105680734
 20
611.815242415672
 30
0.0
 40
3.0
 50
0.0
 51
90.0
  0
LINE
  8
CUT
  5
3C9
 10
476.438105680734
 20
617.815242415672
 30
0.0
 11
476.438105680734
 21
619.315242415672
 31
0.0
  0
ARC
  8
CUT
  5
3CA
 10
479.438105680734
 20
617.815242415672
 30
0.0
 40
3.0
 50
180.0
 51
270.0
  0
LINE
  8
CUT
  5
3CB
 10
479.438105680734
 20
622.315242415672
 30
0.0
 11
518.438105680734
 21
622.315242415672
 31
0.0
  0
ARC
  8
CUT
  5
3CC
 10
479.438105680734
 20
619.315242415672
 30
0.0
 40
3.0
 50
90.0
 51
180.0
  0
LINE
  8
CUT
  5
3CD
 10
521.438105680734
 20
619.315242415672
 30
0.0
 11
521.438105680734
 21
617.815242415672
 31
0.0
  0
ARC
  8
CUT
  5
3CE
 10
518.438105680734
 20
619.315242415672
 30
0.0
 40
3.0
 50
0.0
 51
90.0
  0
LINE
  8
CUT
  5
3CF
 10
518.438105680734
 20
614.815242415672
 30
0.0
 11
516.938105680734
 21
614.815242415672
 31
0.0
  0
ARC
  8
CUT
  5
3D0
 10
518.438105680734
 20
617.815242415672
 30
0.0
 40
3.0
 50
270.0
 51
360.0
  0
LINE
  8
CUT
  5
3D1
 10
513.938105680734
 20
611.815242415672
 30
0.0
 11
513.938105680734
 21
610.315242415672
 31
0.0
  0
ARC
  8
CUT
  5
3D2
 10
516.938105680734
 20
611.815242415672
 30
0.0
 40
3.0
 50
90.0
 51
180.0
  0
LINE
  8
CUT
  5
3D3
 10
516.938105680734
 20
607.315242415672
 30
0.0
 11
548.438105680734
 21
607.315242415672
 31
0.0
  0
ARC
  8
CUT
  5
3D4
 10
516.938105680734
 20
610.315242415672
 30
0.0
 40
3.0
 50
180.0
 51
270.0
  0
LINE
  8
CUT
  5
3D5
 10
551.438105680734
 20
610.315242415672
 30
0.0
 11
551.438105680734
 21
611.815242415672
 31
0.0
  0
ARC
  8
CUT
  5
3D6
 10
548.438105680734
 20
610.315242415672
 30
0.0
 40
3.0
 50
270.0
 51
360.0
  0
LINE
  8
CUT
  5
3D7
 10
548.438105680734
 20
614.815242415672
 30
0.0
 11
546.938105680734
 21
614.815242415672
 31
0.0
  0
ARC
  8
CUT
  5
3D8
 10
546.938105680734
 20
617.815242415672
 30
0.0
 40
3.0
 50
180.0
 51
270.0
  0
ARC
  8
CUT
  5
3D9
 10
548.438105680734
 20
611.815242415672
 30
0.0
 40
3.0
 50
0.0
 51
90.0
  0
LINE
  8
CUT
  5
3DA
 10
543.938105680734
 20
617.815242415672
 30
0.0
 11
543.938105680734
 21
619.315242415672
 31
0.0
  0
LINE
  8
CUT
  5
3DB
 10
546.938105680734
 20
622.315242415672
 30
0.0
 11
585.938105680734
 21
622.315242415672
 31
0.0
  0
ARC
  8
CUT
  5
3DC
 10
585.938105680734
 20
619.315242415672
 30
0.0
 40
3.0
 50
0.0
 51
90.0
  0
ARC
  8
CUT
  5
3DD
 10
546.938105680734
 20
619.315242415672
 30
0.0
 40
3.0
 50
90.0
 51
180.0
  0
LINE
  8
CUT
  5
3DE
 10
588.938105680734
 20
619.315242415672
 30
0.0
 11
588.938105680734
 21
617.815242415672
 31
0.0
  0
LINE
  8
CUT
  5
3DF
 10
585.938105680734
 20
614.815242415672
 30
0.0
 11
584.438105680734
 21
614.815242415672
 31
0.0
  0
ARC
  8
CUT
  5
3E0
 10
585.938105680734
 20
617.815242415672
 30
0.0
 40
3.0
 50
270.0
 51
360.0
  0
LINE
  8
CUT
  5
3E1
 10
581.438105680734
 20
611.815242415672
 30
0.0
 11
581.438105680734
 21
610.315242415672
 31
0.0
  0
ARC
  8
CUT
  5
3E2
 10
584.438105680734
 20
611.815242415672
 30
0.0
 40
3.0
 50
90.0
 51
180.0
  0
LINE
  8
CUT
  5
3E3
 10
584.438105680734
 20
607.315242415672
 30
0.0
 11
615.938105680734
 21
607.315242415672
 31
0.0
  0
ARC
  8
CUT
  5
3E4
 10
584.438105680734
 20
610.315242415672
 30
0.0
 40
3.0
 50
180.0
 51
270.0
  0
LINE
  8
CUT
  5
3E5
 10
618.938105680734
 20
610.315242415672
 30
0.0
 11
618.938105680734
 21
611.815242415672
 31
0.0
  0
ARC
  8
CUT
  5
3E6
 10
615.938105680734
 20
610.315242415672
 30
0.0
 40
3.0
 50
270.0
 51
360.0
  0
LINE
  8
CUT
  5
3E7
 10
615.938105680734
 20
614.815242415672
 30
0.0
 11
614.438105680734
 21
614.815242415672
 31
0.0
  0
ARC
  8
CUT
  5
3E8
 10
615.938105680734
 20
611.815242415672
 30
0.0
 40
3.0
 50
0.0
 51
90.0
  0
LINE
  8
CUT
  5
3E9
 10
611.438105680734
 20
617.815242415672
 30
0.0
 11
611.438105680734
 21
619.315242415672
 31
0.0
  0
ARC
  8
CUT
  5
3EA
 10
614.438105680734
 20
617.815242415672
 30
0.0
 40
3.0
 50
180.0
 51
270.0
  0
LINE
  8
CUT
  5
3EB
 10
614.438105680734
 20
622.315242415672
 30
0.0
 11
653.438105680734
 21
622.315242415672
 31
0.0
  0
ARC
  8
CUT
  5
3EC
 10
614.438105680734
 20
619.315242415672
 30
0.0
 40
3.0
 50
90.0
 51
180.0
  0
LINE
  8
CUT
  5
3ED
 10
656.438105680734
 20
619.315242415672
 30
0.0
 11
656.438105680734
 21
617.815242415672
 31
0.0
  0
ARC
  8
CUT
  5
3EE
 10
653.438105680734
 20
619.315242415672
 30
0.0
 40
3.0
 50
0.0
 51
90.0
  0
LINE
  8
CUT
  5
3EF
 10
653.438105680734
 20
614.815242415672
 30
0.0
 11
651.938105680734
 21
614.815242415672
 31
0.0
  0
ARC
  8
CUT
  5
3F0
 10
653.438105680734
 20
617.815242415672
 30
0.0
 40
3.0
 50
270.0
 51
360.0
  0
LINE
  8
CUT
  5
3F1
 10
648.938105680734
 20
611.815242415672
 30
0.0
 11
648.938105680734
 21
610.315242415672
 31
0.0
  0
ARC
  8
CUT
  5
3F2
 10
651.938105680734
 20
610.315242415672
 30
0.0
 40
3.0
 50
180.0
 51
270.0
  0
ARC
  8
CUT
  5
3F3
 10
651.938105680734
 20
611.815242415672
 30
0.0
 40
3.0
 50
90.0
 51
180.0
  0
LINE
  8
CUT
  5
3F4
 10
651.938105680734
 20
607.315242415672
 30
0.0
 11
662.999709869254
 21
607.315242415672
 31
0.0
  0
LINE
  8
CUT
  5
3F5
 10
509.192717046304
 20
532.097846139016
 30
0.0
 11
506.873784079153
 21
532.097846139016
 31
0.0
  0
LINE
  8
CUT
  5
3F6
 10
509.192717046304
 20
502.205690882684
 30
0.0
 11
506.689995087972
 21
502.322214562715
 31
0.0
  0
LINE
  8
SCORE
  5
3F7
 10
506.873784079153
 20
537.913935322214
 30
0.0
 11
506.873784079153
 21
532.097846139016
 31
0.0
  0
LINE
  8
SCORE
  5
3F8
 10
506.689995087972
 20
496.266914501194
 30
0.0
 11
506.689995087972
 21
502.322214562715
 31
0.0
  0
ARC
  8
CUT
  5
3F9
 10
-133.90308106394
 20
425.660051520134
 30
0.0
 40
536.226859637134
 50
355.917719948912
 51
4.082280051088
  0
ARC
  8
CUT
  5
3FA
 10
-133.428264556851
 20
607.078287449089
 30
0.0
 40
536.226859637134
 50
355.917719948912
 51
0.025318612297
  0
ARC
  8
CUT
  5
3FB
 10
-134.433426070244
 20
243.814556537631
 30
0.0
 40
536.226859637134
 50
358.982128201393
 51
4.082280051088
  0
ARC
  8
CUT
  5
3FC
 10
509.159416796188
 20
538.879452791204
 30
0.0
 40
2.486006993451
 50
188.883274590574
 51
258.416356353125
  0
ARC
  8
CUT
  5
3FD
 10
508.939404853555
 20
495.207968311602
 30
0.0
 40
2.486204200373
 50
99.671611472654
 51
168.237812340391
  0
LINE
  8
SCORE
  5
3FE
 10
466.016737940855
 20
380.167991396488
 30
0.0
 11
465.997591994819
 21
289.036735464356
 31
0.0
  0
LINE
  8
SCORE
  5
3FF
 10
466.016737940855
 20
380.167991396488
 30
0.0
 11
506.873834412252
 21
353.838382521095
 31
0.0
  0
LINE
  8
CUT
  5
400
 10
506.703279825222
 20
356.068638609764
 30
0.0
 11
502.787149440439
 21
407.277895345541
 31
0.0
  0
LINE
  8
SCORE
  5
401
 10
502.787149440439
 20
407.277895345541
 30
0.0
 11
466.016737940855
 21
380.167991396488
 31
0.0
  0
ARC
  8
CUT
  5
402
 10
509.699203607993
 20
334.620579861448
 30
0.0
 40
19.424382877131
 50
266.524795896281
 51
93.065955084676
  0
ARC
  8
CUT
  5
403
 10
516.635348161762
 20
334.722290493825
 30
0.0
 40
17.853539050646
 50
123.144683654868
 51
236.148013142578
  0
LINE
  8
CUT
  5
404
 10
508.907541019658
 20
406.917286650091
 30
0.0
 11
521.256652996967
 21
399.092723093886
 31
0.0
  0
ARC
  8
CUT
  5
405
 10
517.204982736136
 20
389.950296277253
 30
0.0
 40
10.0
 50
11.745833411727
 51
66.098405723393
  0
LINE
  8
CUT
  5
406
 10
526.995585524769
 20
391.986001814706
 30
0.0
 11
536.802787412582
 21
344.818856869167
 31
0.0
  0
LINE
  8
SCORE
  5
407
 10
465.997591994819
 20
289.036735464356
 30
0.0
 11
506.69004542107
 21
315.430696663171
 31
0.0
  0
LINE
  8
CUT
  5
408
 10
506.505455972103
 20
313.287860990833
 30
0.0
 11
502.09223288587
 21
262.056266162017
 31
0.0
  0
LINE
  8
SCORE
  5
409
 10
502.09223288587
 20
262.056266162017
 30
0.0
 11
465.997591994819
 21
289.036735464356
 31
0.0
  0
LINE
  8
CUT
  5
40A
 10
526.448683801976
 20
277.110276271536
 30
0.0
 11
536.695057059895
 21
323.956777760862
 31
0.0
  0
ARC
  8
CUT
  5
40B
 10
487.849773469419
 20
334.640329181899
 30
0.0
 40
50.0
 50
347.662428858051
 51
11.745833411727
  0
ARC
  8
CUT
  5
40C
 10
510.463500841947
 20
334.724848453934
 30
0.0
 40
15.0
 50
265.140331097832
 51
94.859668902168
  0
ARC
  8
CUT
  5
40D
 10
505.482137116357
 20
400.899136296349
 30
0.0
 40
6.924704006743
 50
60.352383252619
 51
112.903768006149
  0
LINE
  8
CUT
  5
40E
 10
508.212624465088
 20
262.416874857467
 30
0.0
 11
520.561736442397
 21
270.241438413672
 31
0.0
  0
ARC
  8
CUT
  5
40F
 10
515.867089491655
 20
280.222119608289
 30
0.0
 40
11.029673934469
 50
295.191045357731
 51
343.612404688888
  0
ARC
  8
CUT
  5
410
 10
504.787220561787
 20
268.435025211209
 30
0.0
 40
6.924704006743
 50
247.096231993851
 51
299.647616747381
  0
LINE
  8
CUT
  5
411
 10
509.192767379402
 20
349.6709260821
 30
0.0
 11
506.873834412251
 21
349.6709260821
 31
0.0
  0
LINE
  8
CUT
  5
412
 10
509.192767379402
 20
319.778770825768
 30
0.0
 11
506.69004542107
 21
319.895294505799
 31
0.0
  0
LINE
  8
SCORE
  5
413
 10
506.873834412251
 20
355.487015265298
 30
0.0
 11
506.873834412251
 21
349.6709260821
 31
0.0
  0
LINE
  8
SCORE
  5
414
 10
506.69004542107
 20
313.839994444278
 30
0.0
 11
506.69004542107
 21
320.040930916619
 31
0.0
  0
ARC
  8
CUT
  5
415
 10
509.159467129286
 20
356.452532734288
 30
0.0
 40
2.486006993451
 50
188.883274590574
 51
258.416356353125
  0
ARC
  8
CUT
  5
416
 10
508.939455186653
 20
312.781048254686
 30
0.0
 40
2.486204200373
 50
99.671611472654
 51
168.237812340391
  0
ARC
  8
CUT
  5
522
 10
760.520059595096
 20
334.527659523171
 30
0.0
 40
362.049657072405
 50
173.947654901559
 51
186.052345098441
  0
ARC
  8
CUT
  5
523
 10
761.469692074308
 20
516.792443015318
 30
0.0
 40
362.049657072405
 50
173.947654901559
 51
186.052345098441
  0
ENDSEC
  0
EOF
